This Town (Intro) Tab par Oar

Tablature Ukulélé sans accords.

Ajouter cette tab à votre SongBook
Tablature / ChordsFont size: A- A A+

Vous ne savez pas comment lire une tablature ou un accord ?
Ne manquez pas nos cours:

Comment lire une tablature pour ukulélé
Comment lire un accord

A|-------11-9--6h7p6-4-6-|
E|7--7-7-----------------|
C|-----------------------|
G|-----------------------|


A|6h7p6--4--6--4--2------|
E|------------------3----|
C|-----------------------|
G|-----------------------|

 

Commentaires (0)
Aucun commentaire :(
Besoin d'aide, envie de partager une astuce, ou simplement de parler de cette chanson? Commencez la discussion!

Vous devez être connecté pour participer à la discussion
ou Inscription

 

A propos de cette chanson

Pas d'information sur cette chanson.