Love And Memories Tab par Oar

Tablature Ukulélé sans accords.

Ajouter cette tab à votre SongBook
Tablature / ChordsFont size: A- A A+

Vous ne savez pas comment lire une tablature ou un accord ?
Ne manquez pas nos cours:

Comment lire une tablature pour ukulélé
Comment lire un accord

Intro/Chorus
A|--2----4----0----7----2----4----0----2----------|
E|--2----4----0----7----2----4----0----0----------|
C|--3----4----1----8----3----4----1----4----------|
G|--4----6----2----9----4----6----2----4----------|

Main Riff
A|-----------------4-----------------------|
E|------4-5-4----------4-5-4--------------------|
C|--4-6-------6-4----6-------6-4-6----------------|
G|----------------------------------------|

Verse
A|--2----4------|
E|--2----4-------| x7
C|--3----4-------|
G|--4----6------|

Verse End
A|--2--4--0--|
E|--2--4--0--|
C|--3--4--1--|
G|--4--6--2--|

 

Commentaires (0)
Aucun commentaire :(
Besoin d'aide, envie de partager une astuce, ou simplement de parler de cette chanson? Commencez la discussion!

Vous devez être connecté pour participer à la discussion
ou Inscription

 

A propos de cette chanson

Pas d'information sur cette chanson.