Brucia La Terra Tab par Nino Rota

Tablature Ukulélé sans accords.

Ajouter cette tab à votre SongBook
Tablature / ChordsFont size: A- A A+

Vous ne savez pas comment lire une tablature ou un accord ?
Ne manquez pas nos cours:

Comment lire une tablature pour ukulélé
Comment lire un accord

A|---0-3-2-0-3-0-2-0-----0----------------|
E|-0-----0-------1---1-3-0----------------|
C|-------0-------0-------0----------------|
G|-------2-------2-------2----------------|


A|---0-3-2-0-3-0-2-0-----0----------------|
E|-0-----0-------0-------1----------------|
C|-------0-------1---4-3-2----------------|
G|-------2-------0-------2----------------|


A|-----0-2--------0-----------------------|
E|---1---0----1-4-0-----------------------|
C|-2-----2--2-----0-----------------------|
G|-------1--------2-----------------------|


A|-----10--8-7-10-8-8-7-7--0--------------|
E|---8---------------------0--------------|
C|-9---------------------8-0--------------|
G|-------------------------2--------------|


A|--------2-2-0---3------1----------------|
E|--5-5-4-3-----1-0--3-0-1-------0--------|
C|--------2-------0------2-2-5-3-2--------|
G|--------0-------0------3-------1--------|

 

Commentaires (0)
Aucun commentaire :(
Besoin d'aide, envie de partager une astuce, ou simplement de parler de cette chanson? Commencez la discussion!

Vous devez être connecté pour participer à la discussion
ou Inscription

 

A propos de cette chanson

Pas d'information sur cette chanson.