Uprising Tab par Muse

4 Accords utilisés dans la chanson: Dm, Gm, F, A

Ajouter cette tab à votre SongBook
Tablature / ChordsFont size: A- A A+

Vous ne savez pas comment lire une tablature ou un accord ?
Ne manquez pas nos cours:

Comment lire une tablature pour ukulélé
Comment lire un accord

# For reference, check out my video of playing this tab:
http://www.youtube.com/watch?v=-txpyFqaiLY

A||-12--8--------------|
E||-------8------------|
C||---------9s10-9-----|
G||--------------------|

A||-12-8---12-12h13p12--|
E||--0---9--------------|
C||---------------------|
G||---------------------|

A||-12--8-------8--13-8-13--12h13p12-|
E||-------9---9----------------------|
C||---------10-----------------------|
G||----------------------------------|

A||-12--8-------8--12-8--9s11-9------|
E||-------9---9----------------------|
C||---------10-----------------------|
G||----------------------------------|


The "Come On!!" riff

A||-5---5---|
E||-10--10--|
C||---------|
G||---------|


Dm Dm
The paranoia is in bloom, the PR
Gm Gm F F
The transmissions will resume
A A
They'll try to push drugs

Keep us all dumbed down and hope that
Gm Gm F F Dm Dm
We will never see the truth around, so come on

Dm Dm
Another promise, another scene, another
Gm Gm F F
A A package not to keep us trapped in greed
A A
With all the green belts wrapped around our minds
Gm Gm F F Dm Dm
And endless red tape to keep the truth confined, so come on

Chorus:
Dm Dm Gm Gm F F
They will not force us
A A Gm Gm F F
They will stop degrading us
Dm Dm Gm Gm F F
They will not control us
A A Gm Gm F F Dm Dm
We will be victorious, so come on

Dm Dm
Interchanging mind control
Gm Gm F F
Come let the revolution take it's toll if you could
A A
Flick the switch and open your third eye, you'd see that
Gm Gm F F Dm Dm
We should never be afraid to die, so come on

Dm Dm
Rise up and take the power back, it's time that
Gm Gm F F
The fat cats had a heart attack, you know that
A A
Their time is coming to an end
Gm Gm F F Dm Dm
We have to unify and watch our flag ascend, so come on

Chorus

Solo:
Dm Dm |
Hey! Hey! |
Gm Gm F F |
Hey! Hey! | x3
|
A A Gm Gm F F |

Chorus

 

Commentaires (0)
Aucun commentaire :(
Besoin d'aide, envie de partager une astuce, ou simplement de parler de cette chanson? Commencez la discussion!

Vous devez être connecté pour participer à la discussion
ou Inscription

 

A propos de cette chanson

Pas d'information sur cette chanson.