Scarlet Letters Tab par Mudvayne

7 Accords utilisés dans la chanson: G, D, F, C, Bb, Am, Fm

Ajouter cette tab à votre SongBook
Tablature / ChordsFont size: A- A A+

Vous ne savez pas comment lire une tablature ou un accord ?
Ne manquez pas nos cours:

Comment lire une tablature pour ukulélé
Comment lire un accord

Fingerpicking Intro:
G G D D
A|--------2---------------0-----------------|
E|---3--3---3---3---2---2---2---2-----------|
C|-2--2-------2---2---2-------2-------------|
G|-------------------------------------------|


F F C C
A|---------0-----------3-------3-------------|
E|---1---1---1---1---0---0---0---0-----------|
C|-0---0-------0---0-------0-----------------|
G|--------------------------------------------|

Play both lines six times. (Twice instrumental, four times with lyrics)

Fingerpicking Intro:
G G D D F F C C
My xxxxx xx beating xxx xxx xxxx xxx died
G G D D F F C C
My xxxxxx xxxxxxxxx xxxxxxx xxxxxxxxx eyes
G G D D F F C C
The xxxxx xx xxxxxxx, xxx xxxx for xxxxxx
G G D D F F C C
I've xxxx xx xxxxxxx xxx God xxxxx x tried


Chorus:
G G D D
A|-2-2-2-2----------0-0-0-0-0-0-0-0-------------|
E|-3-3-3-3----------2-2-2-2-2-2-2-2-------------|
C|-2-2-2-2----------2-2-2-2-2-2-2-2-------------|
G|-0-0-0-0-3-2-0-2--2-2-2-2-2-2-2-2-------------|

F F C C
A|-0-0-0-0-0-0-0-0--3-3-3-3--8-8/6-6/5----------|
E|-1-1-1-1-1-1-1-1--0-0-0-0----------------------|
C|-0-0-0-0-0-0-0-0--0-0-0-0--5-5/3-3/2----------|
G|-2-2-2-2-2-2-2-2--0-0-0-0----------------------|

G G D D
A|-2-2-2-2----------0-0-0-0-0-0-0-0-------------|
E|-3-3-3-3----------2-2-2-2-2-2-2-2-------------|
C|-2-2-2-2----------2-2-2-2-2-2-2-2-------------|
G|-0-0-0-0-3-2-0-2--2-2-2-2-2-2-2-2-------------|

F F C C
A|-0-0-0-0------------3~------------------------|
E|-1-1-1-1------------0~------------------------|
C|-0-0-0-0--0-0-0-0--0~------------------------|
G|-2-2-2-2------------0~------------------------|

G G D D F F C C
I xxxxx xxxx xx xx xxxx xxxxxxx xx xxxxxxx letters
G G D D F F
Carved xxxx xxxx xxxx xxx me
C C
Once xxx xxxxx xx more

Solo:
C C G G Bb Bb
A|----------------------------------------|
E|-8~--11-10-8-10-------11-10-8-10-6~----|
C|-----------------7v~--------------------|
G|----------------------------------------|

F F D D
A|----------------------------------------|
E|-11-10-8-10-13~--10-11-10~-------------|
C|----------------------------------------|
G|----------------------------------------|

C C F F D D C C Bb Bb
A|----------------------------------------------------------|
E|-8~--11-10-8-10-13~--14-13-11-13-10~--10\11/10-8~--6~--|
C|----------------------------------------------------------|
G|----------------------------------------------------------|

Solo Chords: C C-G G-Bb Bb-F F-D D-C C-F F-D D-C C-Bb Bb

Verse 2 (Same fingerpicking pattern as Intro/Verse 1):

G G D D F F C C
An xxxxxx xxxxxx x xxxxxx xx climb
G G D D F F C C
I xxxx xx xxx xxx xxx x xxxxx mind
G G D D F F C C
Betrayed xxx xxxxxx xxxxxxxx xx xxx lies
G G D D F F C C
Farewell xx xxx xxx, xxxx xx xxxx. Goodbye

Chorus:
G G D D
A|-2-2-2-2----------0-0-0-0-0-0-0-0-------------|
E|-3-3-3-3----------2-2-2-2-2-2-2-2-------------|
C|-2-2-2-2----------2-2-2-2-2-2-2-2-------------|
G|-0-0-0-0-3-2-0-2--2-2-2-2-2-2-2-2-------------|

F F C C
A|-0-0-0-0-0-0-0-0--3-3-3-3--8-8/6-6/5----------|
E|-1-1-1-1-1-1-1-1--0-0-0-0----------------------|
C|-0-0-0-0-0-0-0-0--0-0-0-0--5-5/3-3/2----------|
G|-2-2-2-2-2-2-2-2--0-0-0-0----------------------|

G G D D
A|-2-2-2-2----------0-0-0-0-0-0-0-0-------------|
E|-3-3-3-3----------2-2-2-2-2-2-2-2-------------|
C|-2-2-2-2----------2-2-2-2-2-2-2-2-------------|
G|-0-0-0-0-3-2-0-2--2-2-2-2-2-2-2-2-------------|

F F C C
A|-0-0-0-0------------3~--6/7\6-----------------|
E|-1-1-1-1------------0~------------------------|
C|-0-0-0-0--0-0-0-0--0~---3/4\3----------------|
G|-2-2-2-2------------0~------------------------|

G G D D
A|-2-2-2-2----------0-0-0-0-0-0-0-0-------------|
E|-3-3-3-3----------2-2-2-2-2-2-2-2-------------|
C|-2-2-2-2----------2-2-2-2-2-2-2-2-------------|
G|-0-0-0-0-3-2-0-2--2-2-2-2-2-2-2-2-------------|

F F C C
A|-0-0-0-0-0-0-0-0--3-3-3-3--8-8/6-6/5----------|
E|-1-1-1-1-1-1-1-1--0-0-0-0----------------------|
C|-0-0-0-0-0-0-0-0--0-0-0-0--5-5/3-3/2----------|
G|-2-2-2-2-2-2-2-2--0-0-0-0----------------------|

G G D D
A|-2-2-2-2----------0-0-0-0-0-0-0-0-------------|
E|-3-3-3-3----------2-2-2-2-2-2-2-2-------------|
C|-2-2-2-2----------2-2-2-2-2-2-2-2-------------|
G|-0-0-0-0-3-2-0-2--2-2-2-2-2-2-2-2-------------|

F F C C
A|-0-0-0-0------------3~------------------------|
E|-1-1-1-1------------0~------------------------|
C|-0-0-0-0--0-0-0-0--0~------------------------|
G|-2-2-2-2------------0~------------------------|


G G D D F F C C
I xxxxx xxxx xx xx xxxx xxxxxxx xx xxxxxxx letters
G G D D F F
Carved xxxx xxxx xxxx xxx me
C C
Once xxx xxxxx xx more
G G D D F F C C
I xxxxx xxxx xx xx xxxx xxxxxxx xxxxxxx, xxx xxxxxxx letter
G G D D F F C C
Torn xx xxx, x xxxxx xx xx, x xxxxx xx xxx, xx more

Bridge:
G G D D
A|-----2-------2-------0-------0---------|
E|---3---3---3---3---2---2---2---2-------|
C|-2-------2-------2-------2-------------|
G|----------------------------------------|

F F C C
A|-----0-------0-------3-------3---------|
E|---1---1---1---1---0---0---0---0-------|
C|-0-------0-------0-------0-------------|
G|----------------------------------------|

G G D D
A|-----2-------2-------0-------0---------|
E|---3---3---3---3---2---2---2---2-------|
C|-2-------2-------2-------2-------------|
G|----------------------------------------|

F F C C
A|-----0-------0-------0---3---0----------|
E|---1---1---1---1---0---0---0---0--------|
C|-0-------0-------0----------------------|
G|----------------------------------------|

G G D D
Do xxx xxxxxxx xx loss
F F C C
Do xxx xxxxxxx xx faith
G G D D
Do xxx xxxxxxx xx death
F F C C
Now xxxx xxx gone

Bridge 2:
G G D D F F C C
A|-2-2-2-2--0-0-0-0--0-0-0-0--0-0-0-3-3-3-3------------------|
E|-3-3-3-3--2-2-2-2--1-1-1-1--1-1-1-0-0-0-0------------------|
C|-2-2-2-2--2-2-2-2--0-0-0-0--0-0-0-0-0-0-0------------------|
G|-0-0-0-0--2-2-2-2--2-2-2-2--2-2-2-0-0-0-0------------------|

G G D D F F C C
A|-2-2-2-2--0-0-0-0--0-0-0-0--0-0-0-3-3-3-3------------------|
E|-3-3-3-3--2-2-2-2--1-1-1-1--1-1-1-0-0-0-0------------------|
C|-2-2-2-2--2-2-2-2--0-0-0-0--0-0-0-0-0-0-0------------------|
G|-0-0-0-0--2-2-2-2--2-2-2-2--2-2-2-0-0-0-0------------------|

G G D D F F C C
A|-2-2-2-2~-2--0-0-0-0~-0--0-0-0-0~-0--0-0-0-3-3-3-3--------------|
E|-3-3-3-3~-3--2-2-2-2~-2--1-1-1-1~-1--1-1-1-0-0-0-0---------------|
C|-2-2-2-2~-2--2-2-2-2~-2--0-0-0-0~-0--0-0-0-0-0-0-0---------------|
G|-0-0-0-0~-0--2-2-2-2~-2--2-2-2-2~-2--2-2-2-0-0-0-0---------------|

G G D D F F C C
A|-2-2-2-2~-2--0-0-0-0~-0--0-0-0-0~-0--0-0-0-3-3-3-3--------------|
E|-3-3-3-3~-3--2-2-2-2~-2--1-1-1-1~-1--1-1-1-0-0-0-0---------------|
C|-2-2-2-2~-2--2-2-2-2~-2--0-0-0-0~-0--0-0-0-0-0-0-0---------------|
G|-0-0-0-0~-0--2-2-2-2~-2--2-2-2-2~-2--2-2-2-0-0-0-0---------------|

G G D D F F C C
Forsaken xx, xxxxx xx xxxx xxxx xxx xx lie
G G D D F F C C
Lay xx xx xxxx, xxx xxxx xx xxxx xxx xxxx xx sight
G G D D F F C C
Turning xx xxxx, xxxxx xx xxxxx xxx xxxxxx rise
G G D D
Knives xx xx xxxx, xxx xxxx xx lost
F F C C
Say goodbye

Solo 2:
C C G G Bb Bb
A|----------------------------------------|
E|-8~--11-10-8-10-------11-10-8-10-6~----|
C|-----------------7v~--------------------|
G|----------------------------------------|

F F D D
A|----------------------------------------|
E|-11-10-8-10-13~--10-11-10~-------------|
C|----------------------------------------|
G|----------------------------------------|

C C
A|-------10-11-10-11-15b~-15~------------|
E|-11-13----------------------------------|
C|----------------------------------------|
G|----------------------------------------|

F F D D C C
A|--8-8-10-8-6-5~-3~---------------------|
E|----------------------------------------|
C|----------------------------------------|
G|----------------------------------------|

Solo 2 Chords: C C-G G-Bb Bb-F F-D D-C C-F F-D D-C C

Chorus:
G G D D
A|-2-2-2-----------0-0-0-x-0-0-0-------------|
E|-3-3-3-----------2-2-2-x-2-2-2-------------|
C|-2-2-2-----------2-2-2-x-2-2-2-------------|
G|-0-0-0--3-2-0-2--2-2-2-x-2-2-2-------------|

F F Am Am F F Am Am F F C C
A|-0-0-0---0--0--0--0---0-0-0-0--x-3-3-3---------|
E|-1-1-1---1--0--1--0---1-1-1-1--x-0-0-0---------|
C|-0-0-0---0--0--0--0---0-0-0-0--x-0-0-0---------|
G|-2-2-2---2--2--2--2---2-2-2-2--x-0-0-0---------|

G G D D
A|-2-2-2-----------0-0-0-x-0-0-0-------------|
E|-3-3-3-----------2-2-2-x-2-2-2-------------|
C|-2-2-2-----------2-2-2-x-2-2-2-------------|
G|-0-0-0--3-2-0-2--2-2-2-x-2-2-2-------------|

F F Am Am F F Am Am F F C C
A|-0-0-0---0--0--0--0---0-0-0-0--x-3-3-3---------|
E|-1-1-1---1--0--1--0---1-1-1-1--x-0-0-0---------|
C|-0-0-0---0--0--0--0---0-0-0-0--x-0-0-0---------|
G|-2-2-2---2--2--2--2---2-2-2-2--x-0-0-0---------|

G G D D
A|-2-2-2-----------0-0-0-x-0-0-0-------------|
E|-3-3-3-----------2-2-2-x-2-2-2-------------|
C|-2-2-2-----------2-2-2-x-2-2-2-------------|
G|-0-0-0--3-2-0-2--2-2-2-x-2-2-2-------------|

F F Am Am F F Am Am C C
A|-0-0-0---0--0--0--0---3~---------|
E|-1-1-1---1--0--1--0---0~---------|
C|-0-0-0---0--0--0--0---0~---------|
G|-2-2-2---2--2--2--2---0~---------|

G G D D F F C C
I xxxxx xxxx xx xx xxxx xxxxxxx xx xxxxxxx Letters
G G D D F F C C
Carved xxxx, xxxx xxxx xxx xx, xxxx xxx xxx, xx more
G G D D F F C C
I xxxxx xxxx xx xx xxxx anymore,
G G D D F F C C
I xxxxx xxxx xx xx xxxx xxxxxxx xxx xxxxxxx letters


Outro:
G G D D
A|--------2---------------0-----------------|
E|---3--3---3---3---2---2---2---2-----------|
C|-2--2-------2---2---2-------2-------------|
G|-------------------------------------------|

F F C C
A|---------0-----------3-------3-------------|
E|---1---1---1---1---0---0---0---0-----------|
C|-0---0-------0---0-------0-----------------|
G|--------------------------------------------|

G G D D
A|--------2---------------0-----------------|
E|---3--3---3---3---2---2---2---2-----------|
C|-2--2-------2---2---2-------2-------------|
G|-------------------------------------------|

F F C C
A|---------0-----------3-------3-------------|
E|---1---1---1---1---0---0---0---0-----------|
C|-0---0-------0---0-------0-----------------|
G|--------------------------------------------|

G G D D
A|--------2---------------0-----------------|
E|---3--3---3---3---2---2---2---2-----------|
C|-2--2-------2---2---2-------2-------------|
G|-------------------------------------------|

F F C C
A|---------0-----------3-------3-------------|
E|---1---1---1---1---0---0---0---0-----------|
C|-0---0-------0---0-------0-----------------|
G|--------------------------------------------|

G G D D
A|--------2---------------0-----------------|
E|---3--3---3---3---2---2---2---2-----------|
C|-2--2-------2---2---2-------2-------------|
G|-------------------------------------------|

F F Fm Fm
A|--------3~----------|
E|---1----1~----------|
C|-0---0--0~----------|
G|--------0~----------|

G G D D F F C C
Carved into
G G D D F F C C
what xxxx xxx me,
G G D D F F C C
once xxx yours
G G D D F F Fm Fm
no more


# That should be pretty close for a ukulele part. Feel free to message me corrections or anything. Enjoy!(:

 

Commentaires (0)
Aucun commentaire :(
Besoin d'aide, envie de partager une astuce, ou simplement de parler de cette chanson? Commencez la discussion!

Vous devez être connecté pour participer à la discussion
ou Inscription

 

A propos de cette chanson

Pas d'information sur cette chanson.