Lacrimosa Tab par Mozart

Tablature Ukulélé sans accords.

10/10
ImprimerAjouter cette tab à votre SongBook

Tablature / Chords (Chanson entière)

Font size: A- A A+

Artiste: 
Année:  2013
Tonalité: inconnuTablature (sans accords)
|-------------------4-----|-5------------0-----0------|
|-1-----1-----0-----0-----|-1------0------------------|
|-2-----------------------|--------1-----2------------|
|-------2-----0-----0-----|-2------------------0------|

|-------------------------|----------------7-------7--|
|---------5-6-----------6-|---5------6-3-----1---5----|
|-----2---------2---------|---------------------------|
|---6-------------6---5---|-----7---------------------|

|-5---5-----5-5-----4-----|-5---5-----5-5-----4------|
|-1-----1-1---------0-0---|-1-----1-1---------0-0----|
|-------------2-2---------|-------------2-2----------|
|-2-2---------2---2-0---0-|-2-2---------2---2-0---0--|

|-------------------------|--------------------------|
|---------5-6---------6-5-|---------5-6---------6-5--|
|-----2---------2---------|-----2---------2----------|
|---6-------------6-------|---6-------------6--------|

|-5-0---4-----5-0---------|---------2---0-----2---5--|
|-------0---0-5-----0-0---|-1-1---4-----0-0----------|
|-5---2-9-1-------2-0-----|-0---------2-------2------|
|-------------------0---0-|-2---2-------2---2-0-0----|

|-----0-----0-------------|---------------3-----5----|
|---------0-----1-----3---|-----1-----0--------------|
|---2-------------2-----0-|--------------------------|
|-------------------------|---2-----4-------2-----0--|

|-------------------3-----|-2-----5---5-5---5-4---4--|
|---0-----0---1-1---------|-------1-----1-----0------|
|-0-----0-----0-----3-3---|-2-2----------------------|
|-0---0-0---0-2---2-2---2-|-0---0---2-----2-----0----|

|---7-----7---------------|-----------------------0--|
|---------------1-----2---|---3-----5-----5----------|
|-------------------------|--------------------------|
|-----5-----5-----5-----2-|-----4-----3-----2---2----|

|-0-----0-----0-----0---5-|-4---4---5--7---7-5---5----|
|-0-0---------1-1-----1---|-0-----0----1-----1-----1--|
|-------------------------|---------------------------|
|-2---2---3-2-2---2-------|-0-0--------3-3---3-3------|
S
|-----0-----------0-----5-|-----1---5--7-----0-----5--|
|---0-----------------1---|----------------------1----|
|---------------2---------|---------------------------|
|---------3-2-------------|---0------------2----------|

|-6---6-----6-6---6-5---5-|-5---5-----5-7---7-5------|
|---------3---------1-----|-1-----1-1---1-----1------|
|-3-----3-----3-----------|--------------------------|
|-3-3---------3-3---3-3---|-2-2---------3-3---2-2-1--|

|---6-------6---6-----5---|---5-------7---7-----5----|
|---------3-------1-------|---------1-------1-----4--|
|-----3-------------------|-----2--------------------|
|-----------------------3-|--------------------------|

|-5---5-------8-----7---7-|-7---7----------------------|
|-1-----1-3-1-3---1-1-----|-0-----0-----0-0---1--------|
|-------------------------|-------------------2--------|
|-3-3---------5-5---3-3---|-3-3-----2-0-0---0----------|

|-----5---------------7---|----------------------------|
|---------3-1---1-------6-|---6-----5-3---3------------|
|---2---------------------|---------------------5------|
|-----------------0-------|-----3-----------2------7---|

|-0-------0------0-------0-------|-0-------0------0-------0--------|
|-1-------1------1-------1-------|-1-------1------1-------1--------|
|----------------2-------2-------|-2-------------------------------|
|-4-------5----------------------|---------5------4-------4--------|

|--------------------------------|---------------------------------|
|--------------------------------|---------------------------------|
|---5-------5------5-------5-----|---5-------5------5-------5------|
|------4-------5------7-------7--|------7-------5------4-------4---|

|-2---2-0-----0-5-----0-8-|-8-------5---0-----0------|
|-1-----1-1---------1---1-|-1---1-1-1---1-1----------|
|-------------------------|--------------------------|
|-0-0---5---5-----5-5---5-|-5-5-----4-4-5---5---3-0--|

|-----2-----3-----5---3---|---5-----5-2-3---3-3------|
|-----------------------1-|-1---1--------------------|
|-------------------------|--------------------------|
|---0-----0-----5---------|---------------------3-0--|

|-0-----6----5-----0-----|-5---5---5---0-----0------|
|-1-----1----1-----1-----|-1-----1-1---1-1----------|
|------------------------|--------------------------|
|-2-----2----3-----2-----|-3-3-----4-4-5---5---3-0--|

|--------------------6---|---------5-2-3-----3------|
|-1-1-1-1-1----1-------1-|-1------------------------|
|------------------------|--------------------------|
|----------------2-5-----|---------------------3-0--|

|-0-----4---4-4---4-4---4-|-5---5------5-5-----4---4--|
|-1-1---1-----0-----0-----|-1------1-1---------0------|
|-------------------------|--------------2-2----------|
|-2---2-2-2---0-0---0-0---|-2-2----------2---2-0-0----|

|-------------------------|---------------------------|
|-1-1-5---1-3---1-5---1---|---1------5-6---------6-5--|
|-------------------------|----------------2----------|
|-----------------------6-|-----7------------6--------|

|-5---5-----5-5-----4---4-|-5-----0---0---------------|
|-1-----1-1---------0-----|-1---1-1-1---3-3---1-1-----|
|-------------2-2---------|-------------2---2-0----0--|
|-2-2---------2---2-0-0---|-2-2---5-----3-----2-------|

|-------------------------|---4-5---------5-4---------|
|---------5-6---------6-5-|---------5-6---------------|
|-----2---------2---------|---------------------------|
|---6-------------6-------|---------------------7--5--|
|-2-7-2-3-3---0-7-0-5----5-|-1-1---0-0----0-7---0-8--|
|-------5---5-------2------|-0---0-0----0------------|
|-4-----5-----4------------|-4-----2------4-----5----|
|-0-----------0-----2-2----|--------------2---2-2----|

|---5-6-----------7--------|---7-5----------4-7------|
|---------6-5---1----------|------------1---------1--|
|--------------------------|-------------------------|
|---------------------7--5-|---------7---------------|

|-0--0-----0----0--0-----0-----|-0-----0-----0-----0-------|
|----0-0---1-1-----1-1---0-0---|---------------------------|
|------------------------------|-2-----2-----2-----2-------|
|----2---2-2-------2---2-2---2-|-2-----2-----2-----2-------|

|------7---------------7-------|---4-5---------------------|
|--------5------5----5---------|---------3-2---6-5---------|
|----------------------------4-|---------------------------|
|-7----------7-------------6---|---------------------7--5--|

|-0-5----0-----0-----0-----|-0----*|--|
|--------1---1-1-1---0---0-|-2----*|--|
|-2------------------------|-2----*|--|
|-2----2-3-3---2---2-2-2---|-2----*|--|

|------------------------4-|-5----*|--|
|------5---6-3---3-0---1---|-5----*|--|
|--------------------------|-9----*|--|
|---7----------------------|-7----*|--|

Tab par , 05 mai 2018

Commentaires (1)

Commenter
Partagez vos rythmiques, vos accords ou vos astuces pour jouer cette tablature!
Filtrer par:
cherylely446 avatar
The way you talk about your passions makes my heart skip a beat. Let's create a space tonight where fantasies can take flight, with a touch that sparks something unforgettable? f1nd me on cherylely_mooo_com change _ to dot
23 Jul 2024
Commentaire

A propos de cette chanson: Lacrimosa

Pas d'information sur cette chanson.

As-tu repris Lacrimosa sur ton Ukulélé ? Partage ta reprise!
Ajouter une reprise