Feelings Tab par Morris Albert

Tablature Ukulélé sans accords.

10/10
ImprimerAjouter cette tab à votre SongBook

Tablature / Chords (

Font size: A- A A+

Artiste: 
Année:  2009
Tonalité: inconnuTablature (sans accords)
^
||-----3---2---0---------2-2-------2-------2---2---2---2----------|
||---3---3---3---3-2---2---2-------3-------3---3---3---3---0-2-3-0|
||-2---------------0-0-----3-------4-4-4---4---4---3---3----------|
||-----------------2-------2-------0-------0---0---0---0----------|

|-2-------2---2---2---2-----------2-------0-------------------0--|
|-3-0-0---3---3---3---3---0-2-3-0-0---0---0---3---2-------2-3----|
|-2-------2---2---1---1-----------0---0---0---0---0-------2-----2|
|-0-------0---0---0---0-----------0---0---0---0---2-------2------|


^
|-2---3---2---0---------2-2-------2-------2---2---2---2----------|
|-3-3---3---3---3-2---2---2---2---3-------3---3---3---3---0-2-3-0|
|-2---------------0-0-----3-3-----4-4-4---4---4---3---3----------|
|-0---------------2-------2-----2-0-------0---0---0---0----------|


|-2-------2---2---2---2-----------2-------0---------------------0|
|-3-0-0---3---3---3---3---0-2-3-0-0---0---0---3---2-------2--3---|
|-2-------2---2---1---1-----------0---0---0---0---0--------------|
|-0-------0---0---0---0-----------0---0---0---0---2--------------|


|-2---------------2---------------7-------7-----------7---5---3--|
|-3---------------4---------------0---0---0---0---2---2---2---2--|
|-2---------------4---------------0---0---0---0---2---2---2---2--|
|-0---------------4---------------0---0---0---0---2---2---2---2--|


|-5-------5-----------5---3---2---3-------3-----------3---2---0--|
|-2---2---2---2---3---3---3---3---0---0---0---0---2---2---2---2--|
|-2---2---2---2---4---4---4---4---0---0---0---0---2---2---2---2--|
|-4---4---4---4---0---0---0---0---2---2---2---2---2---2---2---2--|


|-2---------------2-------2--3--5-7-------7-----------7---5-3-2-3|
|-2---------------4---------------0---0---0---0---2---2---2---2--|
|-2---------------4---------------0---0---0---0---2---2---2---2--|
|-4---------------4---------------0---0---0---0---2---2---2---2--|

|-5-------5-----------5---3---2---3-------3-----------3---2---0--|
|-2---2---2---2---3---3---3---3---0---0---0---0---2---2---2---2--|
|-2---2---2---2---4---4---4---4---0---0---0---0---2---2---2---2--|
|-4---4---4---4---0---0---0---0---2---2---2---2---2---2---2---2--|

|-2---3---2---0---------2-2-------2------------------------------||
|-3-3---3---3---3-2---2---2-------3------------------------------||
|-2---------------0-0-----3-------4------------------------------||
|-0---------------2-------2-------0------------------------------||

Tab par , 26 mai 2010

Commentaires (0)

Aucun commentaire :(
Besoin d'aide, envie de partager une astuce, ou simplement de parler de cette chanson? Commencez la discussion!

Commenter
Partagez vos rythmiques, vos accords ou vos astuces pour jouer cette tablature!

Top Tabs et Accords de Morris Albert, ne manquez pas ces chansons!

A propos de cette chanson: Feelings

Pas d'information sur cette chanson.

As-tu repris Feelings sur ton Ukulélé ? Partage ta reprise!
Ajouter une reprise