Bella Ciao Tab par Modena City Ramblers

5 Accords utilisés dans la chanson: Em, B7, Am, C, D

Ajouter cette tab à votre SongBook
Tablature / ChordsFont size: A- A A+

Vous ne savez pas comment lire une tablature ou un accord ?
Ne manquez pas nos cours:

Comment lire une tablature pour ukulélé
Comment lire un accord

Uke 1

A|-------------------------------------------------------------------------|
E|--------5-------------5-------------2-5--3-----5-----3---2---------------|
C|---------------------------4------4--------------------4-----------------|
G|------4----4------5-4----4-------------------------4---------------------|

A|-------------------------------------------------------------------------|
E|---5-------------5-------------2-5--3-----5-----3---2--------------------|
C|----------------------4------4--------------------4------------2-4-------|
G|-4----4------5-4----4-------------------------4--------------4-----------|

Uke 2

A|---------------------------5-7-----5-7-----0h2-----0h2---5-------5-------|
E|-------------------------0-------0-------3-------3-----------------------|
C|-------------------------------------------------------------------------|
G|-----------------------------------------------------------0h2-----0h2---|
H H H H H H H
A|-----------------------------------0-2-----0-2-------------------2-------|
E|-----0-------0-------0-------0---3-------3-----------------------0-------|
C|-4-2-----4-2-----4-2-----4-2---------------------2-----------------------|
G|---------------------------------------------------0-2-----------0-------|



Em Em
Una mattina mi son svegliato
B7 B7
O bella ciao, bella ciao, bella ciao ciao ciao
Am Am Em Em
Una mattina mi son svegliato
B7 B7 Em Em
Eo ho trovato l'invasor

Em Em
O partigiano porta mi via
B7 B7
O bella ciao, bella ciao, bella ciao ciao ciao
Am Am Em Em
O partigiano porta mi via
B7 B7 Em Em
Che mi sento di morir

Em Em
E E se io muoio da partigiano
B7 B7
O bella ciao, bella ciao, bella ciao ciao ciao
Am Am Em Em
E E se io muoio da partigiano
B7 B7 Em Em
Tu mi devi seppellir

Em Em
E E seppellire lassù in montagna
B7 B7
O bella ciao, bella ciao, bella ciao ciao ciao
Am Am Em Em
E E seppellire lassù in montagna
B7 B7 Em Em
Sotto l'ombra di un bel fior



Bridge:

A|-2-------------------------2-----------------------------------|
E|---0-2---0----2-----2---0----0---2------2-----2---0------------| x2
C|-----------------------------------2---------------------------|
G|-------0----0---0-2---0--------0------0---4-2---0--------------|

A|-------5----2-----------2-----5-4-5----------------------------|
E|---0-0---0----0-0-2-3-0---0-0----------------------------------| x2
C|---------------------------------------------------------------|
G|---------------------------------------------------------------|


Em Em
E E le genti che passeranno
B7 B7
O bella ciao, bella ciao, bella ciao ciao ciao
Am Am Em Em
E E le genti che passeranno
B7 B7 Em Em
Mi diranno: "Che bel fior"

Em Em
È questo il fiore del partigiano
B7 B7
O bella ciao, bella ciao, bella ciao ciao ciao
Am Am Em Em
È questo il fiore del partigiano
B7 B7 Em Em
Morto per la libertà

C C Em Em
È questo il fiore del partigiano
D D Em Em
Morto per la libertà


Outro:

A|---------------------------------------------------------------|
E|-----5-------------5-------------2-5--3-----5-----3---2--------| x2
C|------------------------4------4--------------------4----------|
G|---4----4------5-4----4-------------------------4--------------|

A|-2-------------------------2-----------------------------------|
E|---0-2---0----2-----2---0----0---2------2-----2---0------------| x2
C|-----------------------------------2---------------------------|
G|-------0----0---0-2---0--------0------0---4-2---0--------------|

A|-------5----2-----------2-----5-4-5----------------------------|
E|---0-0---0----0-0-2-3-0---0-0----------------------------------| x2
C|---------------------------------------------------------------|
G|---------------------------------------------------------------|

A|-2-------------------------2-----------------------------------|
E|---0-2---0----2-----2---0----0---2------2-----2---0------------|
C|-----------------------------------2---------------------------| x2
G|-------0----0---0-2---0--------0------0---4-2---0--------------|

A|-------5----2-----------2-----5-4-5----------------------------|
E|---0-0---0----0-0-2-3-0---0-0----------------------------------|
C|---------------------------------------------------------------| x2
G|---------------------------------------------------------------|

 

Commentaires (1)
Vous devez être connecté pour participer à la discussion
ou Inscription

 

thing avatar
Wonderful tune.
08 Apr 2018
A propos de cette chanson

Pas d'information sur cette chanson.