Deep Six Tab par Marilyn Manson

Tablature Ukulélé sans accords.

Ajouter cette tab à votre SongBook
Tablature / ChordsFont size: A- A A+

Vous ne savez pas comment lire une tablature ou un accord ?
Ne manquez pas nos cours:

Comment lire une tablature pour ukulélé
Comment lire un accord

A|----------------------------------------|X3
E|---2---2------2-------------------------|
C|-0---0---0--3---1-0-3-1-----------------|
G|----------------------------------------|



A|-------------------------------------------------------------|X2
E|--2-2--2-2----2-3-2-2---2-3-2--2-2--2-2--2--5-5-5--3-3-3-3-3-|
C|--0-0--0-0----0-1-0-0---0-1-0--0-0--0-0--0--3-3-3--1-1-1-1-1-|
G|-------------------------------------------------------------|

 

Commentaires (0)
Aucun commentaire :(
Besoin d'aide, envie de partager une astuce, ou simplement de parler de cette chanson? Commencez la discussion!

Vous devez être connecté pour participer à la discussion
ou Inscription

 

A propos de cette chanson

Pas d'information sur cette chanson.