Coma White Tab par Marilyn Manson

4 Accords utilisés dans la chanson: Am, C, G, D

Ajouter cette tab à votre SongBook
Tablature / ChordsFont size: A- A A+

Vous ne savez pas comment lire une tablature ou un accord ?
Ne manquez pas nos cours:

Comment lire une tablature pour ukulélé
Comment lire un accord

# Intro, verse and pre-chorus

A|---2---2---2---2-3-3----2---2---2---2-3-3---2---2---2---2-3-3-3/5-5-5-5-3-3-2-2-|
E|--------------------------------------------------------------------------------|
C|--------------------------------------------------------------------------------|
G|-2---2---2---2--------2---2---2---2-------2---2---2---2-------------------------|

There's something cold and blank behind her smile
She's standing on an overpass
In her miracle mile

You were from a perfect world
A A world that threw me away today
Today today to run away

Am Am
A A pill to make you numb
C C
A A pill to make you dumb
G G D D
A A pill to make you anybody else
Am Am C C
But all the drugs in this world
G G D D
Won't save her from herself

A|-------------------------------------|
E|-(5)-5-5-5-5---5-------5-----5-------| x2
C|-------------7---7-6-6---6-5---6p5h6-|
G|-------------------------------------|

# Intro arpeggio over verse and pre-chorus

Her mouth was an empty cut
And she was waiting to fall
Just bleeding like a polaroid that
Lost all her dolls

You were from a perfect world
A A world that threw me away today
Today to run away

Am Am
A A pill to make you numb
C C
A A pill to make you dumb
G G D D
A A pill to make you anybody else
Am Am C C
But all the drugs in this world
G G D D
Won't save her from herself

A|-------------------------------------|
E|-(5)-5-5-5-5---5-------5-----5-------| x4
C|-------------7---7-6-6---6-5---6p5h6-|
G|-------------------------------------|

You were from a perfect world
A A world that threw me away today
Today to run away

A|---7-5-7---7-5-7---7-5-7---7-5-7-|
E|-7-------7-------7-------7-------|
C|---------------------------------|
G|---------------------------------|

Am Am C C G G D D

Am Am
A A pill to make you numb
C C
A A pill to make you dumb
G G D D
A A pill to make you anybody else
Am Am C C
But all the drugs in this world
G G D D
Won't save her from herself

# Outro

A|-2h4p2-----|
E|-------5-3-|
C|-----------|
G|-----------|

 

Commentaires (0)
Aucun commentaire :(
Besoin d'aide, envie de partager une astuce, ou simplement de parler de cette chanson? Commencez la discussion!

Vous devez être connecté pour participer à la discussion
ou Inscription

 

A propos de cette chanson

Pas d'information sur cette chanson.