Skeleton Key Tab par Margot And The Nuclear So And Sos

Tablature Ukulélé sans accords.

Notez la chanson !
ImprimerAjouter cette tab à votre SongBook

Tablature / Chords (Chanson entière)

Font size: A- A A+

Année:  2005
Tonalité: inconnuTablature (sans accords)
A|-7-5-3-0-2-3-2-----|
E|---------------3-0-|
C|-------------------|
G|-------------------|

A|-7-5-3-0-2-3-2-|
E|---------------|
C|---------------|
G|---------------|

A|-7-5-3-0-2-3-2-----|
E|---------------3-0-|
C|-------------------|
G|-------------------|


A|-----------|
E|-0---2-----|
C|-------2-4-|
G|-----------|

⇢ Cette tablature ne vous convient pas? Voir 1 autre(s) version(s)

Commentaires (0)

Aucun commentaire :(
Besoin d'aide, envie de partager une astuce, ou simplement de parler de cette chanson? Commencez la discussion!

Commenter
Partagez vos rythmiques, vos accords ou vos astuces pour jouer cette tablature!

Top Tabs et Accords de Margot And The Nuclear So And Sos, ne manquez pas ces chansons!

A propos de cette chanson: Skeleton Key

Pas d'information sur cette chanson.

As-tu repris Skeleton Key sur ton Ukulélé ? Partage ta reprise!
Ajouter une reprise