Long Tall Girl Got Stuck On Me Tab par Mance Lipscomb

Tablature Ukulélé sans accords.

Ajouter cette tab à votre SongBook
Tablature / ChordsFont size: A- A A+

Vous ne savez pas comment lire une tablature ou un accord ?
Ne manquez pas nos cours:

Comment lire une tablature pour ukulélé
Comment lire un accord

E|-5-------3-2------|---2-----3---2----|-0---------0------|
A|---------------5--|------------------|------------------|
C|-----2-------2----|-----2-------2----|-----0h1-----1----|
G|-2-------2--------|-2-------2--------|-2-------2--------|

E|-------0----------|-4-------0-----0--|---------0--------|
A|-3---------3------|-3---------3------|---3-------1s2----|
C|-----1-------1----|-----4-------4----|-----4----------2-|
G|-2-------2--------|-2-------2--------|-2-------0--------|

E|-----5------------|-5-----5----------||
A|-----------2------|---2--------------||
C|-----2-------2----|-----2-------2----||
G|-2-------2--------|-2-------2--------||

 

Commentaires (0)
Aucun commentaire :(
Besoin d'aide, envie de partager une astuce, ou simplement de parler de cette chanson? Commencez la discussion!

Vous devez être connecté pour participer à la discussion
ou Inscription

 

A propos de cette chanson

Pas d'information sur cette chanson.