Rohan Theme Tab par Lord Of The Rings

Tablature Ukulélé sans accords.

ImprimerAjouter cette tab à votre SongBook
Tablature / ChordsFont size: A- A A+

Vous ne savez pas comment lire une tablature ou un accord ?
Ne manquez pas nos cours:

Comment lire une tablature pour ukulélé
Comment lire un accord

A|--0---------------3----|--2--------3--------|--5-----------------|
E|-----------------------|--------------------|--------------------|
C|-----------------------|--------------------|--2-----------------|
G|-------2--2--2---------|--------------------|-----------2--------|

A|--------------------||--2-----------------|--------------------|
E|--------------------||-----------0--------|--2--------5--------|
C|-------------------*||--------------------|--2-----------------|
G|--L----------------*||--------------------|--------------------|

A|--------------------||--2--------3--------|--5-----------------|
E|--L-----------------||--------------------|--------------------|
C|-------------------*||--------------------|--2-----------------|
G|-------------------*||--------------------|-----------2--------|

A|-------------------|--------------------|--------------------|
E|-------------------|-----------3--------|--2------------3----|
C|-------------------|--4-----------------|--------------------|
G|--L----------------|--4-----------------|--------------------|

A|---------------------|-------------------|--0---------------3----|
E|--3-----------------|-------------------|--0--------------------|
C|--12--------4--------|-------------------|-----------------------|
G|--------------------|--L----------------|-------2--2--2---------|

A|--0--------3--------|---------------------|---------------------|
E|--0-----------------|----------------2----|---------------------|
C|--------------------|--2------------------|---------------------|
G|--4-----------------|--2--------2---------|--2----0--------2----|

A|--0----------0----3----|--0--------0--------|---------------------|
E|--0--------------------|--0--------0--------|--2--------5---------|
C|-----------------------|--------------------|--2--------2---------|
G|-------2--2--2---------|--4-----------------|--2-------------2----|

A|--5---------5---------|--2-------------------|------------2----------|
E|----------------------|--7---------3---------|-----------------------|
C|----------------------|--4-------------------|--4--------------------|
G|-------2---------4----|--0----0---------0----|-------0---------4--5--|

A|-----------------------|-----------------------|--------------------------|
E|--------5----5----5----|-------5---------------|--------3-----------3-----|
C|---2-------------------|--2---------2----------|--------------------------|
G|--7--------------------|-----------------9-----|--95----------5-----------|

A|---------------------|---2-------------------|--------------------|
E|---------------------|-------------2---------|-------0------------|
C|---------------------|---4-------------------|--0-----------------|
G|--5--------9---------|--9-----0-----------0--|--0-----------------|

A|-----------------------|--2------------------|--------------------|
E|--3----3--------L--5-3-|--------------------|--0-----------------|
C|--0--------------------|--2----2------------|--------------------|
G|--5--------------------|--11-----------------|-------4------------|

A|------------------------|--2-------------------||--2-------------------||
E|---3----3--------L--5-3-|---------------------||-------5-------------||
C|*--0--------------------|--2----2------------*||--2-----------------*||
G|*--5--------------------|--11-----------------*||--11-----------------*||

A|--2------------------|----------------------|--------------------|
E|--------------------|-------3----2------3--|--3----0------------|
C|--2----2------------|--4-------------------|--0-----------------|
G|--11-----------------|--4-------------------|--------------------|

A|--0---------------3----|--2--------3--------|--5--------2----3--2--|
E|-----------------------|--------------------|----------------------|
C|-----------------------|--------------------|--2-------------------|
G|-------2--2--2---------|--------------------|----------------------|

A|--0----------------||
E|--0----------------||
C|-------------------||
G|--2----------------||

 

Commentaires (0)
Aucun commentaire :(
Besoin d'aide, envie de partager une astuce, ou simplement de parler de cette chanson? Commencez la discussion!

Vous devez être connecté pour participer à la discussion
ou Inscription

 

A propos de cette chanson

Pas d'information sur cette chanson.