The Night We Met Tab par Lord Huron

Tablature Ukulélé sans accords.

Ajouter cette tab à votre SongBook
Tablature / ChordsFont size: A- A A+

Vous ne savez pas comment lire une tablature ou un accord ?
Ne manquez pas nos cours:

Comment lire une tablature pour ukulélé
Comment lire un accord

A|--------------------------|-------------------------|
E|----------5-----------4---|-5---5---5---5---5--5----|
C|--6----6-----6----4-------|---4-------4---4------4--|
G|----6----------6----4-----|-------6-----------6-----|

A|----------------------------------------------|
E|-----2---2----5---5---5---2---5---5---2---5---|
C|-6-1-------1----4---2---2---2---2---2---2-----|
G|-------2--------------------------------------|

A|--------------------------|-------------------------|
E|----------5-----------4---|-5---5---5---5---5--5----|
C|--6----6-----6----4-------|---4-------4---4------4--|
G|----6----------6----4-----|-------6-----------6-----|

A|----------------------------------------------|
E|-----2---2----5---5---5---2---5---5---2---5---|
C|-6-1-------1----4---2---2---2---2---2---2-----|
G|-------2--------------------------------------|

A|--------------------------|-------------------------|
E|----------5-----------4---|-5---5---5---5---5--5----|
C|--6----6-----6----4-------|---4-------4---4------4--|
G|----6----------6----4-----|-------6-----------6-----|

A|----------------------------------------------|
E|-----2---2----5---5---5---2---5---5---2---5---|
C|-6-1-------1----4---2---2---2---2---2---2-----|
G|-------2--------------------------------------|

A|----------------------------------------------|
E|-----2---2----5---5---5---2---5---5---2---5---|
C|-6-1-------1----4---2---2---2---2---2---2-----|
G|-------2--------------------------------------|

A|----------------------------------------------|
E|-----2---2----5---5---5---2---5---5---2---5---|
C|-6-1-------1----4---2---2---2---2---2---2-----|
G|-------2--------------------------------------|

A|----------------------------------------------|
E|-----2---2----5---5---5---2---5---5---2---5---|
C|-6-1-------1----4---2---2---2---2---2---2-----|
G|-------2--------------------------------------|

A|----------------------------------------------|
E|-----2---2----5---5---5---2---5---5---2---5---|
C|-6-1-------1----4---2---2---2---2---2---2-----|
G|-------2--------------------------------------|
A|-------------------------------------------|---7-12---12-7---7-12--12-7--|
E|-------------------------------------------|-5-------------5-------------|
C|-------------------------------------------|-----------------------------|
G|-------------------------------------------|--------6-------------6------|

A|----------------------------------------------|
E|-----2---2----5---5---5---2---5---5---2---5---|
C|-6-1-------1----4---2---2---2---2---2---2-----|
G|-------2--------------------------------------|

A|--------------------------|-------------------------|
E|----------5-----------4---|-5---5---5---5---5--5----|
C|--6----6-----6----4-------|---4-------4---4------4--|
G|----6----------6----4-----|-------6-----------6-----|

A|----------------------------------------------|
E|-----2---2----5---5---5---2---5---5---2---5---|
C|-6-1-------1----4---2---2---2---2---2---2-----|
G|-------2--------------------------------------|

A|----------------------------------------------|
E|-----2---2----5---5---5---2---5---5---2---5---|
C|-6-1-------1----4---2---2---2---2---2---2-----|
G|-------2--------------------------------------|

A|----------------------------------------------|
E|-----2---2----5---5---5---2---5---5---2---5---|
C|-6-1-------1----4---2---2---2---2---2---2-----|
G|-------2--------------------------------------|

A|----------------------------------------------|
E|-----2---2----5---5---5---2---5---5---2---5---|
C|-6-1-------1----4---2---2---2---2---2---2-----|
G|-------2--------------------------------------|

A|----------------------------------------------|
E|-----2---2----5---5---5---2---5---5---2---5---|
C|-6-1-------1----4---2---2---2---2---2---2-----|
G|-------2--------------------------------------|

A|--------------------------|-------------------------|
E|----------5-----------4---|-5---5---5---5---5--5----|
C|--6----6-----6----4-------|---4-------4---4------4--|
G|----6----------6----4-----|-------6-----------6-----|

A|----------------------------------------------|
E|-----2---2----5---5---5---2---5---5---2---5---|
C|-6-1-------1----4---2---2---2---2---2---2-----|
G|-------2--------------------------------------|

A|--------------------------|-------------------------|
E|----------5-----------4---|-5---5---5---5---5--5----|
C|--6----6-----6----4-------|---4-------4---4------4--|
G|----6----------6----4-----|-------6-----------6-----|

A|----------------------------------------------|
E|-----2---2----5---5---5---2---5---5---2---5---|
C|-6-1-------1----4---2---2---2---2---2---2-----|
G|-------2--------------------------------------|

A|----------------------------------------------|
E|-----2---2----5---5---5---2---5---5---2---5---|
C|-6-1-------1----4---2---2---2---2---2---2-----|
G|-------2--------------------------------------|

A|----------------------------------------------|
E|-----2---2----5---5---5---2---5---5---2---5---|
C|-6-1-------1----4---2---2---2---2---2---2-----|
G|-------2--------------------------------------|

 

Commentaires (0)
Aucun commentaire :(
Besoin d'aide, envie de partager une astuce, ou simplement de parler de cette chanson? Commencez la discussion!

Vous devez être connecté pour participer à la discussion
ou Inscription

 

A propos de cette chanson

Pas d'information sur cette chanson.