Baby Please Don't Go Tab par Lightnin Hopkins

Tablature Ukulélé sans accords.

Notez la chanson !
ImprimerAjouter cette tab à votre SongBook

Tablature / Chords (Chanson entière)

Font size: A- A A+

Artiste: 
Album: 
Année:  2006
Tonalité: inconnuTablature (sans accords)
# It's very fun to play [: , the C C string is the bass. enjoy ! pure Blues. #


A|------------|----------------|-5-7----------|---------------|
E|------------|----0--0--3---0-|--------------|----0--0--3--0-|
C|-4--4--4--4-|-4--------4-----|-4----4--4--4-|-4--------4----|
G|------------|----------------|--------------|---------------|


A|---7\5--------|---------------|--5\7-----5---|-2--------------|----------|
E|--------------|----0--0--3--0-|--------------|-----------0----|0---------|
C|-4----4--4--4-|-4--------4----|-4----4--4--4-|-4--4-4------4-2|-4-4-4-4-4|
G|--------------|---------------|--------------|---------2-0----|----------|

Tab par , 19 juin 2013

Commentaires (0)

Aucun commentaire :(
Besoin d'aide, envie de partager une astuce, ou simplement de parler de cette chanson? Commencez la discussion!

Commenter
Partagez vos rythmiques, vos accords ou vos astuces pour jouer cette tablature!

Top Tabs et Accords de Lightnin Hopkins, ne manquez pas ces chansons!

A propos de cette chanson: Baby Please Don't Go

Pas d'information sur cette chanson.

As-tu repris Baby Please Don't Go sur ton Ukulélé ? Partage ta reprise!
Ajouter une reprise