Suden Joiku (Intro) Tab par Korpiklaani

Tablature Ukulélé sans accords.

Ajouter cette tab à votre SongBook
Tablature / ChordsFont size: A- A A+

Vous ne savez pas comment lire une tablature ou un accord ?
Ne manquez pas nos cours:

Comment lire une tablature pour ukulélé
Comment lire un accord

A---------------------------------------------------|
E-4----4-3-----------------6------3-4----4-6--3-----|
C---5------3-5--0--5--3-0----0--3-----5---------3-2-|
G---------------------------------------------------|

A---------------------------------------------------|
E-4----4-3-----------------6------3-4----4-6--3-----|
C---5------3-5--0--5--3-0----0--3-----5---------3-5-|
G---------------------------------------------------|

 

Commentaires (0)
Aucun commentaire :(
Besoin d'aide, envie de partager une astuce, ou simplement de parler de cette chanson? Commencez la discussion!

Vous devez être connecté pour participer à la discussion
ou Inscription

 

A propos de cette chanson

Pas d'information sur cette chanson.