Song Of Storms Tab par Koji Kondo

Tablature Ukulélé sans accords.

8.8/10
ImprimerAjouter cette tab à votre SongBook

Tablature / Chords (Chanson entière)

Font size: A- A A+

Artiste: 
Album:  inconnu
Tonalité: inconnuTablature (sans accords)
|------5-------5-----7--8-7-8-7--------------------------------|
|---1-------1-------------------8-5------5---1-3-5---5---1-3---|
|-2-------2--------------------------------2-----------2-----4-|
|--------------------------------------------------------------|

|------5-------5-----7--8-7-8-7-----------------------------|
|---1-------1-------------------8-5------5---1-3-5---5------|
|-2-------2--------------------------------2-------------2--|
|-----------------------------------------------------------|

⇢ Cette tablature ne vous convient pas? Voir 3 autre(s) version(s)

Commentaires (1)

Commenter
Partagez vos rythmiques, vos accords ou vos astuces pour jouer cette tablature!
Filtrer par:
douchemaster avatar
flag for US(ISO2) (Highland Village)
Awesome! Thank you!
02 Jan 2012
Commentaire

Top Tabs et Accords de Koji Kondo, ne manquez pas ces chansons!

A propos de cette chanson: Song Of Storms

Pas d'information sur cette chanson.

As-tu repris Song Of Storms sur ton Ukulélé ? Partage ta reprise!
Ajouter une reprise