Narda (Intro) Tab par Kamikazee

Tablature Ukulélé sans accords.

ImprimerAjouter cette tab à votre SongBook
Tablature / ChordsFont size: A- A A+

Vous ne savez pas comment lire une tablature ou un accord ?
Ne manquez pas nos cours:

Comment lire une tablature pour ukulélé
Comment lire un accord

Intro
D D
A|-----5------7--5------7--5------7--5------5-----|
E|-10-----10--------10--------10--------10--------|
C|------------------------------------------------|
G|------------------------------------------------|
Bm Bm
A|----5------7--5-----7--5-----7--5-----5------|
E|-7------7--------7--------7--------7---------|
C|---------------------------------------------|
G|---------------------------------------------|
G G
A|---5------7--5-----7--5-----7--5-------5-------|
E|-3-----3--------3--------3--------3------------|
C|-----------------------------------------------|
G|-----------------------------------------------|
A A
A|----5-----7--5-----10-------------------|
E|-5-----5--------5-----------------------|
C|----------------------------------------|
G|----------------------------------------|

UKELELE#2 RIFF

A|---------------------------------------------------------|
E|-12-12-12-10-10-10-10-10-----12-12-12-10-10-12-10----10--| 3X
C|---------------------------------------------------9-----|
G|---------------------------------------------------------|



A|-----------------------------------------------|
E|---12-10----12-10-----12--10-----12--10--9--10-|
C|-9-------9---------9----------9----------------|
G|-----------------------------------------------|

 

Commentaires (0)
Aucun commentaire :(
Besoin d'aide, envie de partager une astuce, ou simplement de parler de cette chanson? Commencez la discussion!

Vous devez être connecté pour participer à la discussion
ou Inscription

 

A propos de cette chanson

Pas d'information sur cette chanson.