Electric Eye Tab par Judas Priest

Tablature Ukulélé sans accords.

Ajouter cette tab à votre SongBook
Tablature / ChordsFont size: A- A A+

Vous ne savez pas comment lire une tablature ou un accord ?
Ne manquez pas nos cours:

Comment lire une tablature pour ukulélé
Comment lire un accord

S                                                 
A|---|-(-)----------------------|--(-)------------------0-|
E|---|--------0----2-----3------|---------0----2-----3----|
C|-4-|-(4)-------------------0--|---0---------------------|
G|-4-|--4-----------------------|-------------------------|
||o-(7)------7-------|-7-------5--5-7-|-(7)------7-------|-7--7s8s7-(7)--5-7-o||
||-------0-0---0-0-0-|---0-0-0--------|------0-0---0-0-0-|--------------------||
||--(11)------11-------|-11-------9--9-11-|-(11)------11-------|-11--9-10-9-(9)--7-11--||
||--(9)------9-------|-9-------7--7-9-|-(9)------9-------|-9---------------9--||
s s
|----------(-)----0-||o-(0)--0-0-0-0-0-0-|-0-0-0-0--------|
|-7--5-6-5--5-----0-||---0-------0-------|-0------------0-|
|-4--4-5-4-(4)--2---||--(-)--------------|---------2--2---|
|-9---------------2-||--(2)------2-------|-2-------0--0-2-|

|------0-0---0-0-0-|---0-0-0--------|------0-0---0-0-0-|
|--0-------0-------|-0------------0-|--0-------0-------|
|-(-)--------------|---------2--2---|-(-)--------------|
|-(2)------2-------|-2-------0--0-2-|-(2)------2-------|

|---0-0-0--------|------0-0---0-0-0-|---0-0-0--------|
|-0------------0-|--0-------0-------|-0------------7-|
|---------2--2---|-(-)--------------|---------2--2-4-|
|-2-------0--0-2-|-(2)------2-------|-2-------0--0-9-|
|-(7)------7-------|-7-------5---5-7-|-(7)------7-------|
|------0-0---0-0-0-|---0-0-0---0-----|------0-0---0-0-0-|
|-(11)------11-------|-11-------9---9-11-|-(11)------11-------|
|-(9)------9-------|-9-------7---7-9-|-(9)------9-------|
A|-7--7s8s7-(7)--5-7-|-(7)------7-------|-7-------5---5-7-|
E|-------------------|------0-0---0-0-0-|---0-0-0---0-----|
C|-11--9-10-9-(9)--7-11-|-(11)------11-------|-11-------9---9-11-|
G|-9---------------9-|-(9)------9-------|-9-------7---7-9-|
H P P P P P P
|----------------------------------|--------------------------------------------------||
|--------5---------5---------6-----|----=---------------------------------------||
|----------------------------------|--------------------------------------------||
|-4-7--4----4-8--5----5-9--6----7--|-10---7--4--8--11--8--5--8--12--9--6--10--13--10--||

A|-2--------------------------------|-(2)-----------------------------------2----||
E|-2--------------------------------|--2------------------------------------2--7-||
C|----------------------------------|-(-)--------------------------------------4-||
G|-4--------------------------------|-(4)-----------------------------------4--9-||
A|--(7)--------7--7---7----5------7-------|
E|-----------------------------0----------|
C|--(11)--------11--11---11----9------11-------|
G|--(9)--------9--9---9----7------9-------|
A|--(7)---------7-7---7----5---3-----|--(3)-------------5-------------2----|
E|-----------------------------------|------------------3-------------0----|
C|--(11)---------11-11---11----9---7-----|--(7)-------------7-------------4----|
G|--(9)---------9-9---9----7---5-----|--(5)--------------------------------|
P P P s
A|---------------------------------------------|
E|-(--)----------------------------------|
C|---------------------------------------|
G|--14---12--11--12--11--9--11--9--7--9--7--4--|
A|--(7)--------7-----7--7-----5--------7-|
E|-------------------------------0-------|
C|--(11)--------11-----11--11-----9--------11-|
G|--(9)--------9-----9--9-----7--------9-|
H P P P
|------------------------------------------------|-------------------------------------|
|----=----------------------------5-----6----5--|-----6--3--6--3----3-----------------|
|-----------------------------------------------|-----------------4----4----4---------|
|-9---12--9--7--9--7----4--7--4-------4----------|-6----------------------7----6----4--|
|-(7)-----------7----7-----7----5----------3----|-(3)----------------5-----------2----|
|-----------------------------------------------|--------------------3-----------0----|
|-(11)-----------11----11-----11----9----------7----|-(7)----------------7-----------4----|
|-(9)-----------9----9-----9----7----------5----|-(5)---------------------------------|
P S
|-----------------------------------|-----------------------------------------------------------|
|-------5----3---------------------|-----------------------------------------------|
|----=----------6------------------|-----------------------------------------------|
|-7---4----4------9----9----9--11---|--9-----11--14--14--11--11--11--14--11--11--14--9--11--11--|
A|-(2)------------------(2)---9-----|--(9)----9-----9-----9-----7-----------9-------|
E|-(0)------------------(0)---7-----|--(7)----7-----7-----7-----5-----5-----7-------|
C|-(4)------------------(4)---11-----|--(11)----11-----11-----11-----9-----------11-------|
G|----------------------------------|-----------------------------------------------|
|-(9)--------------9-----9-----9-----7----------5--|
|-(7)--------------7-----7-----7-----5----------3--|
|-(11)--------------11-----11-----11-----9----------7--|
|--------------------------------------------------|
|------------------14--15-----14--15--17-----15--|-17-------------------------------------||
|-(14-)-15--17--16--17--------17-----------------|---------------------------------------||
|------------------------------------------|---------------------------------------||
|------------------------------------9-----|-----9--10--11--9--11--11--14--16------(16-)\-||
P H P P H P P H P P H P
A|-------------------------------------------------------------------|
E|----=----------------------------------------------|
C|---------------------------------------------------|
G|-16---11--14--11--16--11--13--11--16--11--14--11--16--11--13--11---|
A|-(9)-----------9-----9-----9-----7-----x-----9-----|
E|-(7)-----------7-----7-----7-----5-----x-----7-----|
C|-(11)-----------11-----11-----11-----9-----------11-----|
G|---------------------------------------------------|
P H P P s P H P P H P
A|----------------------------------------------------------|
E|-22-=---------22-------22----------22----------|
C|-----------------------------------------------|
G|-----11--14--11-----11--14-----14--16--14-----14--16--14--|
|-(9)-----------9-----9--9-----7-----------5----|
|-(7)-----------7-----7--7-----5-----------3----|
|-(11)-----------11-----11--11-----9-----------7----|
|-----------------------------------------------|

|--6--0-2-------------------|------------6---------------||
|-------------0-1-3---------|----0-2--------3-5----------||
|---------0-2---------------|-3--------------------------||
|-------------------2-3---4-|--------2-4---------4--7----||

A|-(2)---------------0-------|----------------------------||
E|--2--------------------5---|-5-------------5-----7------||
C|-(-)-------------------2---|-2-------------2-----4------||
G|-(4)-------------------7---|-7-------------7-----9------||
S
A|--------------------|-------------------|-------------------|-----------------|
E|--------------------|-------------------|-------------------|-----------------|
C|--------------------|-------------------|-------------------|-----------------|
G|-9------------------|-------------------|-------------------|-----------------|
P H
A||o---0-0---0-0---0-|-0---0-0---------o||
E||--5-----3-----5---|---3-----5-3-3-5--||
C||--2-----------2---|---------2-----2--||
G||--------5---------|---5---------5----||

A||o---0-0---0-0---0-|-0---0-0---0---0-o||
E||--5-----3-----5---|---3-----5---3----||
C||--2-----------2---|---------2--------||
G||--------5---------|---5---------5----||
s s
A||o-0---0-0--------|-0--------------|-0---0-0--------|-0---------------o||
E||----5-----3-2-0--|---3---5--5-----|---5-----3-2-0--|---3---5---3------||
C||----2------------|-------2-(2)----|---2------------|-------2----------||
G||----------5-4-2--|---5-----(-)----|---------5-4-2--|---5-------5------||
H H H
A|-2---2--(2)----2-|----2-5--5--2-----|-2---------------|-----------------||
E|-0-2-2---2--0----|-2------------0-2-|-0-2-2---2--0----|-2---0---2---3---||
C|--------(-)------|------------------|--------(-)------|-1-6---6---6---0-||
G|-----4--(4)-2----|-4----2-(2)---2-4-|-----4--(4)-2----|-----------------||

 

Commentaires (0)
Aucun commentaire :(
Besoin d'aide, envie de partager une astuce, ou simplement de parler de cette chanson? Commencez la discussion!

Vous devez être connecté pour participer à la discussion
ou Inscription

 

A propos de cette chanson

Pas d'information sur cette chanson.