Jurassic Park Theme Tab par John Williams

Tablature Ukulélé sans accords.

10/10
ImprimerAjouter cette tab à votre SongBook

Tablature / Chords (Chanson entière)

Font size: A- A A+

Artiste: 
Année:  1993
Tonalité: inconnuTablature (sans accords)
Jurassic Park Theme (John Williams) for 'ukulele
A|1-0-1------1-0-1------1-0-1----3-3---6-6----|
E|--------------------------------------------|
C|--------------------------------------------|
G|--------------------------------------------|

A|5-1-3--0-----5-1-3---0-----8-3-6--5-5---3-3-|
E|---------1-------------1--------------------|
C|--------------------------------------------|
G|--------------------------------------------|

A|1-0-1------1-0-1------1-0-1---------------|
E|------1----------1----------1-----4-------|
C|--------3----------3----------3-0---------|
G|------------------------------------------|

A|1-0-1------1-0-1------1-0-1---------1-0-1------0-----1-|
E|------1----------1-----------------------------------1-|
C|--------3----------3---------3-2-3-------------------2-|
G|-----------------------------------------------------3-|

⇢ Cette tablature ne vous convient pas? Voir 2 autre(s) version(s)

Commentaires (2)

Commenter
Partagez vos rythmiques, vos accords ou vos astuces pour jouer cette tablature!
Filtrer par:
BetterChat avatar
flag for US(ISO2) (Lonejack)
How do you read this ;(
25 Aug 2020
Commentaire
Kwolftribe avatar
flag for US(ISO2) (Norfolk)
THIS IS PERFECT!!! I love the Jurassic park series and this is identical to the theme song. A good beginner for the ukulele.
22 Feb 2019
Correction

Top Tabs et Accords de John Williams, ne manquez pas ces chansons!

A propos de cette chanson: Jurassic Park Theme

Pas d'information sur cette chanson.

As-tu repris Jurassic Park Theme sur ton Ukulélé ? Partage ta reprise!
Ajouter une reprise