Damage Tab par Jimmy Eat World

1 Accords utilisés dans la chanson :

Ajouter cette tab à votre SongBook

Voir ces acccords pour le Baryton

Changer de tonalité:
Tablature / ChordsFont size: A- A A+

Vous ne savez pas comment lire une tablature ou un accord ?
Ne manquez pas nos cours:

Comment lire une tablature pour ukulélé
Comment lire un accord


#Intro

A :----3-------3---|--3---3-----3---|----3-------3---|--3---3-----3---|
E :3-3-3-3-3-3-3-3-|3-3-3-3-3-3-3-3-|3-3-3-3-3-3-3-3-|3-3-3-3-3-3-3-3-|
C :0-0---0-0-0---0-|0-0-0-0-0-0-0-0-|0-0---0-0-0---0-|0-0-0-0-0-0-0-0-|
G :----------------|----------------|----------------|----------------|

#Verse
A :----3-------3---|--3---3-----3---|----3-------3---|--3---3-----3---|
E :3-3-3-3-3-3-3-3-|3-3-3-3-3-3-3-3-|3-3-3-3-3-3-3-3-|3-3-3-3-3-3-3-3-|
C :4-4---4-4-4---4-|2-2-2-2-2-2-2-2-|0-0---0-0-0---0-|0-0-0-0-0-0-0-0-|
G :----------------|----------------|----------------|----------------|


A :----3-------3---|--3---3-----3---|----3-------3---|--3---3-----3---|
E :3-3-3-3-3-3-3-3-|3-3-3-3-3-3-3-3-|3-3-3-3-3-3-3-3-|3-3-3-3-3-3-3-3-|
C :4-4---4-4-4---4-|2-2-2-2-2-2-2-2-|0-0---0-0-0---0-|0-0-0-0-0-0-0-0-|
G :----------------|----------------|----------------|----------------|


A :----3-------3---|--3---3-----3---|----3-------3---|--3---3-----3---|
E :3-3-3-3-3-3-3-3-|3-3-3-3-3-3-3-3-|3-3-3-3-3-3-3-3-|3-3-3-3-3-3-3-3-|
C :4-4---4-4-4-5---|2-2-2-2---2-2-2-|5-5-4-4-2-0-0---|0-0-0-0-0-0-2---|
G :----------------|----------------|----------------|----------------|


A :----3-------3---|--3---3-----3---|----3-------3---|--3---3-----3---|
E :0-0-0-0-0-0-0-0-|0-0-0-0-0-0-0-0-|1-1-1-1-1-1-1-1-|1-1-1-1-1-1-1-1-|
C :4-4-----4-4---4-|2-2-2-2-4-4-4-4-|0-0---0-0-0---0-|0-0-0-0-0-0-0-0-|
G :----------------|----------------|----------------|----------------|

#Chorus
A :--3-3-3---3-3-3-|--3-3-3---3-3-3-|3---------------|----------------|
E :--3-3-3---3-3-3-|--3-3-3---3-3-3-|--3-3-3-3-3-3-3-|3-3-3-3-3-3-3-3-|
C :4-------7-------|2-------7-------|5-4---0-------x-|0-2---4---5-4---|
G :----------------|----------------|----------------|----------------|

#Chorus Ending #Break
A :----------------|----------------|3-3-3-3-3-3-3-3-|----------------|
E :3-3-3-3-3-3-3-3-|3-3-3-3-3-3-3-3-|0-0-0-0-0-0-0-0-|3-3-3-3-3-3-3-3-|
C :4-4---4---4-4---|2-2---4---2---0-|0-0-0-0-0-0-0-0-|0-0-0-0-0-0-0-0-|
G :----------------|----------------|----------------|0-0-0-0-0-0-0-0-|


A :----------------|2-2-2-2-3-3-3-3-|2-2-2-2-2-2-2-2-|0-0-0-0-0-0-0-0-|
E :3-3-3-3-3-3-3-3-|3-3-3-3-3-3-3-3-|1-1-1-1-1-1-1-1-|1-1-1-1-1-1-1-1-|
C :0-0-0-0-0-0-0-0-|0-0-0-0-0-0-0-0-|0-0-0-0-0-0-0-0-|0-0-0-0-0-0-0-0-|
G :0-0-0-0-0-0-0-0-|----------------|----------------|----------------|

 

Commentaires (0)
Aucun commentaire :(
Besoin d'aide, envie de partager une astuce, ou simplement de parler de cette chanson? Commencez la discussion!

Vous devez être connecté pour participer à la discussion
ou Inscription

 

A propos de cette chanson

Pas d'information sur cette chanson.