Herr Mannelig (Riff) Tab par In Extremo

Tablature Ukulélé sans accords.

Ajouter cette tab à votre SongBook
Tablature / ChordsFont size: A- A A+

Vous ne savez pas comment lire une tablature ou un accord ?
Ne manquez pas nos cours:

Comment lire une tablature pour ukulélé
Comment lire un accord

H   s                                                                     
A|-----------------------------------------------------------------------------|
E|----------5-3--0-2-3-5-3-2-0----2-3---5---3-5--------------------------------|
C|-----------------------------------------------------------------------------|
G|--4-4-5-4-------------------------------------4---7--------------------------|
H s
A|---------------------------------------------------------------------------------|
E|----------5-3--0-2-3-5-3-2-0----2-3---5---3-2-0----------------------------------|
C|---------------------------------------------------------------------------------|
G|--4-4-5-4------------------------------------------------------------------------|

 

Commentaires (0)
Aucun commentaire :(
Besoin d'aide, envie de partager une astuce, ou simplement de parler de cette chanson? Commencez la discussion!

Vous devez être connecté pour participer à la discussion
ou Inscription

 

A propos de cette chanson

Pas d'information sur cette chanson.