Itchin' On A Photograph Tab par Grouplove

3 Accords utilisés dans la chanson: G, D, Em

Ajouter cette tab à votre SongBook
Tablature / ChordsFont size: A- A A+

Vous ne savez pas comment lire une tablature ou un accord ?
Ne manquez pas nos cours:

Comment lire une tablature pour ukulélé
Comment lire un accord

Intro:


A|----------------------------------------| x4
E|-2-2-2-2-2-2-2-2-1-1-1---7-6------------|
C|-----------------------3----3-----------|
G|----------------------------------------|



A|----------------------------------------| x1
E|-2-2-2-2-2-2-2-2-1-1-1---2--------------|
C|-----------------------3---1------------|
G|----------------------------------------|



A|----------------------------------------| x5
E|-2-2-2-2-2-2-2-2-1-1-1---7-6------------|
C|-----------------------3----3-----------|
G|----------------------------------------|

Chorus:

G G D D Em Em
Feel the rain come down and you know now
G G D D Em Em
Put the fire out you'll burn
G G D D Em Em
Ever wonder how you can see now
G G D D Em Em
At this landing ground is so you know
G G D D Em Em
Yeah I'm waiting on my mum and dad
G G D D Em Em
Yeah I'm swinging on a branch that'll last
G G D D Em Em
Yeah I'm going up then falling back




G G D D Em Em
Yeah I'm itchin' on a photograph
G G D D Em Em
Feel the rain come down and you know now
G G D D Em Em
Put the fire out you'll burn
G G D D Em Em
Ever wonder how you can see now
G G D D Em Em
At this landing ground it's all while you were sleeping
G G D D Em Em
It's all while you were
2 x




G G D D Em Em
I'm itchin' on a photograph
G G D D Em Em
Yeah I'm scratching on a thermostat
G G
Yeah I'm letting go of all that i had
G G D D Em Em
Yeah I'm living now and living last
G G D D Em Em
I'm itchin' on a photograph
G G D D Em Em
Yeah I'm scratching on a thermostat
G G D D Em Em
Yeah I'm letting go of what i had
G G D D Em Em
Yeah I'm living now and living loud

 

Commentaires (0)
Aucun commentaire :(
Besoin d'aide, envie de partager une astuce, ou simplement de parler de cette chanson? Commencez la discussion!

Vous devez être connecté pour participer à la discussion
ou Inscription

 

A propos de cette chanson

Pas d'information sur cette chanson.