Mary Had A Little Lamb Tab par George

Tablature Ukulélé sans accords.

Ajouter cette tab à votre SongBook
Tablature / ChordsFont size: A- A A+

Vous ne savez pas comment lire une tablature ou un accord ?
Ne manquez pas nos cours:

Comment lire une tablature pour ukulélé
Comment lire un accord

H                             
|--0--2-----0--2--0-----5-5-5-5-4-------------0--2--2--2--0---------5-5-5-5-
|--------------------3--0-0-0-0-0-----------------------------3--0--0-0-0-0-
|--------2------------------------------4--4--------------------------------
|-----------------------1-1-1-1-1-----------------------------------1-1-1-1-
H H H P P
|-----2-----0--2--2--2-0--4--5--4--2----0--4--4--4--4-----------------------
|------------------------------------------3--3--3--3-----------------------
|--4--4--1------------------------------------------------------------------
|------------------------------------------2--2--2--2-----------------------
H
|--0--2-----0--2--0-----5-5-5-5-4-------------0--2--2--2--0------2----3---0-
|--------------------3--0-0-0-0-0-----------------------------3-------------
|--------2------------------------------4--4--------------------------------
|-----------------------1-1-1-1-1-----------------------------------2---2---
s
|--------5--2--------5--5--4--2-----0--5--5--5--5---------------------------
|--3--0--------------0--0--------------0--0--0--0-------------3-------------
|--------------------7------------------4--4--------------------------------
|--------------2--4-----4--------2-----1--1--1--1---------------------------

 

Commentaires (0)
Aucun commentaire :(
Besoin d'aide, envie de partager une astuce, ou simplement de parler de cette chanson? Commencez la discussion!

Vous devez être connecté pour participer à la discussion
ou Inscription

 

A propos de cette chanson

Pas d'information sur cette chanson.