Broad Daylight (Riff) Tab par Gabriel Rios

Tablature Ukulélé sans accords.

Ajouter cette tab à votre SongBook
Tablature / ChordsFont size: A- A A+

Vous ne savez pas comment lire une tablature ou un accord ?
Ne manquez pas nos cours:

Comment lire une tablature pour ukulélé
Comment lire un accord

#BROAD DAYLIGHT - GABRIEL RIOS  by: SvC

A|---3--3--3--3--3--3--3--3--|
E|--1--1---------------------| Repeat
C|--------3--3--2--2--1--1---|
G|---------------------------|

#or:

A|---5--5--5--5--5--5--5--5--|
E|--3--3---------------------| Repeat
C|--------5--5--4--4--3--3---|
G|---------------------------|

#or:

A|---7--7--7--7--7--7--7--7--|
E|--5--5---------------------| Repeat
C|--------7--7--6--6--5--5---|
G|---------------------------|

#etc.

 

Commentaires (0)
Aucun commentaire :(
Besoin d'aide, envie de partager une astuce, ou simplement de parler de cette chanson? Commencez la discussion!

Vous devez être connecté pour participer à la discussion
ou Inscription

 

A propos de cette chanson

Pas d'information sur cette chanson.