You Gotta Move Tab par Fred McDowell

Tablature Ukulélé sans accords.

Ajouter cette tab à votre SongBook
Tablature / ChordsFont size: A- A A+

Vous ne savez pas comment lire une tablature ou un accord ?
Ne manquez pas nos cours:

Comment lire une tablature pour ukulélé
Comment lire un accord

Tuning: Open D D (F# F# C C E E A A)

A-|--------------0--------------------------0------------------------------|
E-|-0---4------------4-------------5--0---4-----4-----------------5--5--5-5|
C-|-----------2--2------4-------------------2------4-----------------------|
F#|---------4----0----------4--4------------0---------4--4--4--4-----------|

A-|--------7--0----------2--5----------0----------------7---2--0-----------|
E-|---4--0--------4-------------0--4-------4---------4-------------4-------|
C-|-----------2------2-----------------2------4-4--------------2------4----|
F#|4----------0---------------------0--0-----------------------0-----------|

A-|5--7--5--7---0-------------------------0-----------------0--------------|
E-|-----------------4------------5----------------5------4------4----------|
C-|----------2--2------4----------------2-2-----------------2------4-------|
F#|-------------0---------------------4-------4-4----4------0---------4--4-|

A-|------------------------------7--0---------2---5------------0-----------|
E-|-------5--5--5--5-----4--0-----------4-------------0----4-------4-------|
C-|---------------------------------2------4-------------------2------4-4--|
F#|4---4--------------4-------------0--------------------------0-----------|

A-|----7-2-0-------5---7---5---7-----0--------------------0----------------|
E-|-4---------4--------------------------4--------2---5-------4-----5-5---3|
C-|--------2----2----------------4-4-2------4-2--------4--2------4---------|
F#|--------0-------------------------0--------------------0----------------|

A-|------0----------------------------------------------0--------2--5------|
E-|---2------4------5--5--5--5--3--3--3--3--5--2------------4---------0---4|
C-|2-----2------4---------------------------------2--2--2------4-----------|
F#|------0----------------------------------------------0------------------|

A-|-0---------------7--2-0--------5--7--5--7-----0------------------------0|
E-|-----4--0-----4-----------4-----------------------4---------------------|
C-|42--------2-----------2------4------------4-2-2------4-----------------2|
F#|-0--------------------0-----------------------0------------------------0|

A-|-------------------0-------------------------------------------------7--|
E-|-4---------5-----4-----4---------------------5--5--5--5-------4--0------|
C-|----4--------------2------4---------------------------------------------|
F#|-----4-4------4----0---------4---4---4---4----------------4-------------|

A-|0--------2---5------------0-------------7-2-----5---7--5---7----0-------|
E-|---4-------------0----4-------4-----4-------------------------------4---|
C-|2-----4-----------------4-2------4----------4-4---------------4-2------4|
F#|0-------------------------0-------------------------------------0-------|

A-|5--9---12---0---------12-12---10--5--9--0--------12--12--12--12--10--10--10--10---12-|
E-|----------0----/4--0-----------------------/4--0-------------------------------------|
C-|------------2---------------------------2--------------------------------------------|
F#|------------0---------------------------0--------------------------------------------|

A-|9-5-/5~-0---------0-/3-5---9--0---------9-/5--0-0--0-0--3-/5--3--/5~--0-|
E-|-----------/4--0-----------------/4--0------------------------------0---|
C-|--------2---------------------2---------------------------------------2-|
F#|--------0---------------------0---------------------------------------0-|

A-|-------------------0---0------------------------------0-----------------|
E-|-4-------------------------4-------------5---0----4-------4-------------|
C-|---4-------------------2------4-----------------------2------4----------|
F#|-----------------------0----------4--4----------------0----------4---4--|

A-|---------------------------------7-0---------2---5------------0---------|
E-|--------5--5--5--5--5-----4--0---------4-------------0----4-------4-----|
C-|-----------------------------------2------4-----------------4-2------4--|
F#|4---4------------------4-----------0--------------------------0---------|
S S S S S S S ~ S S s
A-|---7--2-2-----5---7--5---7----0---------------------0-------------------|
E-|-4--------------------------------4---------2---5-------4----5-5---3----|
C-|-----------4----------------4-2------4--2---------4-2------4----------2-|
F#|------------------------------0---------------------0-------------------|

A-|----0--------------------------------------------0--------2--5---------0|
E-|--2---4------5--5--5--5--3--3--3--3--5--2------------4---------0---4----|
C-|----2----4---------------------------------2--2--2------4------------4-2|
F#|----0--------------------------------------------0---------------------0|

A-|----------7--2-0---------5--7--5--7---0-------------------------0-------|
E-|-4-0---4-----------4----------------------4-----------------------------|
C-|----4----------2------4-------------4-2------4----------------4-2--2----|
F#|---------------0----------------------0-------------------------------4-|

A-|-------------0----------------------------------------------7---0-------|
E-|----5--0---4-----4--------------------5--5--5--5-----4--0-----------4---|
C-|-------------2------4-------------------------------------------2------4|
F#|4------------0--------4---4---4---4---------------4-------------0-------|

A-|2--5-----------0------------7--2--0-0-0--5----7--5---7---0--------------|
E-|-------0----4------4-----4-----------------------------------4--------2-|
C-|---------------2------4--------------------------------4-2------4-2-----|
F#|---------------0-----------------------------------------0--------------|

A-|-12--0---------12--12--5---9-0---------12--12--12--12--10--10--10--10---12--9--5/5~-|
E-|---0----/4--0-------------------/4--0-----------------------------------------------|
C-|-----2-----------------------2------------------------------------------------------|
F#|-----0-----------------------0------------------------------------------------------|

A-|0--------0------------0---------------0-0--0-0----------------------|
E-|---4--------------2-------4-----2-----------------------------------|
C-|2-----4-----0-2-----4-2------4-----2------------0--2--0--2-4--------|
F#|0---------------------0----------------------------------------9----|

 

Commentaires (0)
Aucun commentaire :(
Besoin d'aide, envie de partager une astuce, ou simplement de parler de cette chanson? Commencez la discussion!

Vous devez être connecté pour participer à la discussion
ou Inscription

 

A propos de cette chanson

Pas d'information sur cette chanson.