Interrupted By Fireworks Tab par Final Fantasy 7

Tablature Ukulélé sans accords.

ImprimerAjouter cette tab à votre SongBook
Tablature / ChordsFont size: A- A A+

Vous ne savez pas comment lire une tablature ou un accord ?
Ne manquez pas nos cours:

Comment lire une tablature pour ukulélé
Comment lire un accord

A |------5---5------5---5---5-----5---5-------5---5----|
E |--------0------3---2---0---2-----0---------2-3---2--|
C |--2------------------------2-----------2------------|
G |----2-------2--4---2---0-----2-------2---2-------2--|

A |------3-5-3-------3-5-3-------3-5-3-------3-5-3-----|
E |--2-0-2-3-----------------------------------2---0---|
C |--0-----------0-----------0-----------0-------------|
G |----0-------0---0-------0---0-------0---0-------0---|

A |--5---5---5-------5---5-------5---5-------5---5-----|
E |----0-2-0-----------0-----------0-----------0-------|
C |--2-----------2-----------2-----------2-------------|
G |----2-------2---2-------2---2-------2---2-------2---|

A |--------5-3-------3-5-3-------3-5-3-------3-5-3-----|
E |--5-3-7-0-----------------------------0-----3-------|
C |--0-----------0-----------0-----------0-------------|
G |------5-----0---0-------0---0-------0---0-------0---|

A |--2-----4-----------5---5-------------5-----4-------|
E |--2-2-------2---2-----2-----2-----3-2-----2-----2---|
C |------------------------------2---------------------|
G |------4---4---4---4-------4-----4-------4-----4-----|

A |--------3-------3-------3-0-----3-----------0-------|
E |------0-----0-3-------0-------0-----0---0-----0-2---|
C |--0-----------------0---------------------0---------|
G |--4-0-----0-------0-------4-2-----2---2-------0-2---|

A |--2-5-------------7---5---4-----------5-----2-------|
E |--3---3-5-5-3-2-3---3---3-3---------0-3-------------|
C |----2-------2-7-2-------2---2-------2---2-------2---|
G |------0---0-------0-2-0-------0-2-0-------0-2-0-----|

A |--5---5---5-------4---4---------7------------7-------|
E |--------2-----0-----2-------5---5---5-4-5---5---5---|
C |--2-----------1-----------0-----------12-------------|
G |----2-------2---2-------2-4---5---5-------5---5-----|

A |--------------------------------5---5-------5---5----|
E |---3---3---3---3---3---3---3-----3-----5-----3------|
C |-----2-------2---2-------2--------------------------|
G |--7------4-----------4-------3-------3---3-------3--|

A |------5---5------5---5---5--5-----------------------|
E |--------0------3---2---0----2-----------------------|
C |--2-------------------------2-----------------------|
G |----2-------2--4---2---0----2-----------------------|

 

Commentaires (0)
Aucun commentaire :(
Besoin d'aide, envie de partager une astuce, ou simplement de parler de cette chanson? Commencez la discussion!

Vous devez être connecté pour participer à la discussion
ou Inscription

 

A propos de cette chanson

Pas d'information sur cette chanson.