Heroes Tab par David Bowie

Tablature Ukulélé sans accords.

Ajouter cette tab à votre SongBook
Tablature / ChordsFont size: A- A A+

Vous ne savez pas comment lire une tablature ou un accord ?
Ne manquez pas nos cours:

Comment lire une tablature pour ukulélé
Comment lire un accord

Lead Guitar



E E E E E E E E Q. E E E E E E E E E E H E E E E E E E E Q. E E
A||--5--5--------5------5--|--L 5-----0--5--------|--5--5--------5------5--|
E||-----------5------------|-----------------------|-----------5------------|
C||------------------------|-----------------------|------------------------|
G||--------4---------------|--------4--------------|--------4---------------|


E E Q Q Q. E E E E E E E E Q. E E E E E E E E E E H
--L-------3----4------|--5--5--------5------5--|--L--5-----0--5--------|
----------------------|-----------5------------|-----------------------|
----------------------|------------------------|-----------------------|
-----4----------------|--------4---------------|--------4--------------|


E E E E E E E E Q. E E E E Q Q Q. E E E E E E E E Q. E E
--5--5--------5------5--|--L-------3----4------|--5--5--------5------5--|
-----------5------------|----------------------|-----------5------------|
------------------------|----------------------|------------------------|
--------4---------------|-----4----------------|--------4---------------|


E E E E E E E E H E E E E E E E E Q. E E E E Q Q Q.
--L--5-----0--5--------|--5--5--------5------5--|--L-------3----4------|
-----------------------|-----------5------------|----------------------|
-----------------------|------------------------|----------------------|
--------4--------------|--------4---------------|-----4----------------|


E E E E E E E E Q. E E E E E E E E E E H E E E E E E E E Q. E E
--5--5--------5------5--|--L--5-----0--5--------|--5--5--------5------5--|
-----------5------------|-----------------------|-----------5------------|
------------------------|-----------------------|------------------------|
--------4---------------|--------4--------------|--------4---------------|


E E Q Q Q.
--L-------3----4------|-------------------|-------------------|
----------------------|-------------------|-------------------|
----------------------|-------------------|-------------------|
-----4----------------|-------------------|-------------------|


-------------------|-------------------|-------------------|-------------------|
-------------------|-------------------|-------------------|-------------------|
-------------------|-------------------|-------------------|-------------------|
-------------------|-------------------|-------------------|-------------------|


-------------------|-------------------|-------------------|-------------------|
-------------------|-------------------|-------------------|-------------------|
-------------------|-------------------|-------------------|-------------------|
-------------------|-------------------|-------------------|-------------------|


E E E E E E E E Q. E E
-------------------|-------------------|--5--5--------5------5--|
-------------------|-------------------|-----------5------------|
-------------------|-------------------|------------------------|
-------------------|-------------------|--------4---------------|


E E E E E E E E H E E E E E E E E Q. E E E E Q Q Q.
--L--5-----0--5--------|--5--5--------5------5--|--L-------3----4------|
-----------------------|-----------5------------|----------------------|
-----------------------|------------------------|----------------------|
--------4--------------|--------4---------------|-----4----------------|


E E E E E E E E Q. E E E E E E E E E E H E E E E E E E E Q. E E
--5--5--------5------5--|--L--5-----0--5--------|--5--5--------5------5--|
-----------5------------|-----------------------|-----------5------------|
------------------------|-----------------------|------------------------|
--------4---------------|--------4--------------|--------4---------------|


E E Q Q Q. E E E E E E E E Q. E E E E E E E E E E H
--L-------3----4------|--5--5--------5------5--|--L--5-----0--5--------|
----------------------|-----------5------------|-----------------------|
----------------------|------------------------|-----------------------|
-----4----------------|--------4---------------|--------4--------------|


E E E E E E E E Q. E E E E Q Q Q. E E E E E E E E Q. E E
--5--5--------5------5--|--L-------3----4------|--5--5--------5------5--|
-----------5------------|----------------------|-----------5------------|
------------------------|----------------------|------------------------|
--------4---------------|-----4----------------|--------4---------------|


E E E E E E E E H E E E E E E E E Q. E E E E Q Q Q.
--L--5-----0--5--------|--5--5--------5------5--|--L-------3----4------|
-----------------------|-----------5------------|----------------------|
-----------------------|------------------------|----------------------|
--------4--------------|--------4---------------|-----4----------------|


-------------------|-------------------|-------------------|-------------------|
-------------------|-------------------|-------------------|-------------------|
-------------------|-------------------|-------------------|-------------------|
-------------------|-------------------|-------------------|-------------------|


-------------------|-------------------|-------------------|-------------------|
-------------------|-------------------|-------------------|-------------------|
-------------------|-------------------|-------------------|-------------------|
-------------------|-------------------|-------------------|-------------------|


-------------------|-------------------|-------------------|-------------------|
-------------------|-------------------|-------------------|-------------------|
-------------------|-------------------|-------------------|-------------------|
-------------------|-------------------|-------------------|-------------------|


E E E E E E E E Q. E E E E E E E E E E H E E E E E E E E Q. E E
--5--5--------5------5--|--L--5-----0--5--------|--5--5--------5------5--|
-----------5------------|-----------------------|-----------5------------|
------------------------|-----------------------|------------------------|
--------4---------------|--------4--------------|--------4---------------|


E E Q Q Q. E E E E E E E E Q. E E E E E E E E E E H
--L-------3----4------|--5--5--------5------5--|--L--5-----0--5--------|
----------------------|-----------5------------|-----------------------|
----------------------|------------------------|-----------------------|
-----4----------------|--------4---------------|--------4--------------|


E E E E E E E E Q. E E E E Q Q Q. E E E E E E E E Q. E E
--5--5--------5------5--|--L-------3----4------|--5--5--------5------5--|
-----------5------------|----------------------|-----------5------------|
------------------------|----------------------|------------------------|
--------4---------------|-----4----------------|--------4---------------|


E E E E E E E E H E E E E E E E E Q. E E E E Q Q Q.
--L--5-----0--5--------|--5--5--------5------5--|--L-------3----4------|
-----------------------|-----------5------------|----------------------|
-----------------------|------------------------|----------------------|
--------4--------------|--------4---------------|-----4----------------|


E E E E E E E E Q. E E E E E E E E E E H E E E E E E E E Q. E E
--5--5--------5------5--|--L--5-----0--5--------|--5--5--------5------5--|
-----------5------------|-----------------------|-----------5------------|
------------------------|-----------------------|------------------------|
--------4---------------|--------4--------------|--------4---------------|


E E Q Q Q.
--L-------3----4------|-------------------|-------------------|
----------------------|-------------------|-------------------|
----------------------|-------------------|-------------------|
-----4----------------|-------------------|-------------------|


-------------------|-------------------|-------------------|-------------------|
-------------------|-------------------|-------------------|-------------------|
-------------------|-------------------|-------------------|-------------------|
-------------------|-------------------|-------------------|-------------------|


-------------------|-------------------|-------------------|-------------------|
-------------------|-------------------|-------------------|-------------------|
-------------------|-------------------|-------------------|-------------------|
-------------------|-------------------|-------------------|-------------------|


E E E E E E E E Q. E E
-------------------|-------------------|--5--5--------5------5--|
-------------------|-------------------|-----------5------------|
-------------------|-------------------|------------------------|
-------------------|-------------------|--------4---------------|


E E E E E E E E H E E E E E E E E Q. E E E E Q Q Q.
--L--5-----0--5--------|--5--5--------5------5--|--L-------3----4------|
-----------------------|-----------5------------|----------------------|
-----------------------|------------------------|----------------------|
--------4--------------|--------4---------------|-----4----------------|


E E E E E E E E Q. E E E E H Q E E
--5--5--------5------5--|--L-------------------||
-----------5------------|----------------------||
------------------------|----------------------||
--------4---------------|----------------------||




Duration Legend
---------------
W - whole
H - half
Q - quarter
E E - 8th
S - 16th
T - 32nd
X - 64th
. - note dotted
|-n-| - n-tuplets


Tablature Legend
----------------
L - tied note

 

Commentaires (0)
Aucun commentaire :(
Besoin d'aide, envie de partager une astuce, ou simplement de parler de cette chanson? Commencez la discussion!

Vous devez être connecté pour participer à la discussion
ou Inscription

 

A propos de cette chanson

Pas d'information sur cette chanson.