Plage Tab par Crystal Fighters

3 Accords utilisés dans la chanson :

Ajouter cette tab à votre SongBook

Voir ces acccords pour le Baryton

Changer de tonalité:
Tablature / ChordsFont size: A- A A+

Vous ne savez pas comment lire une tablature ou un accord ?
Ne manquez pas nos cours:

Comment lire une tablature pour ukulélé
Comment lire un accord


Normal chords

E chordE G#m chordG#m A chordA G#m chordG#m


Beginner chords (Stick capo on second fret, makes is a lot easier)

With capo:

A|-0---0---2---0------------|
E|-2---2---3---2------------|
C|-2---1---2---1------------|
G|-2---2---0---2------------|

Without capo:

A|-2---2---4---2------------|
E|-4---4---5---4------------|
C|-4---3---4---3------------|
G|-4---4---2---4------------|

 

Commentaires (0)
Aucun commentaire :(
Besoin d'aide, envie de partager une astuce, ou simplement de parler de cette chanson? Commencez la discussion!

Vous devez être connecté pour participer à la discussion
ou Inscription

 

A propos de cette chanson

Pas d'information sur cette chanson.