Samba Pa Ti (Riff) Tab par Carlos Santana

Tablature Ukulélé sans accords.

Ajouter cette tab à votre SongBook
Tablature / ChordsFont size: A- A A+

Vous ne savez pas comment lire une tablature ou un accord ?
Ne manquez pas nos cours:

Comment lire une tablature pour ukulélé
Comment lire un accord

#----------------------------------PLEASE NOTE---------------------------------#
#This file is the author's own work and represents their interpretation of the #
#song. You may only use this file for private study, scholarship, or research. #
#------------------------------------------------------------------------------##

Ukulele High G G

Samba Pa Ti by Santana

Arranged by Shaylie

4/4

Part 1

|------------------3---3---3-3---3-3-|
|--------3-4h==5-------3---3-3---3-3-|
|--2-4-5---------------0---0-0---0-0-|
|----------------------0---0-0---0-0-|



|-----1-/2---2-2---2-------2-2h3p2-|-0---0-0---0---0--0--|
|---3-2-/3---3-3---3-------3-------|-0---0-0---0---0--0--|
|-4---3-/4---4-4---4-------4-------|-0---0-0---0---0--0--|
|-----0-/0---0-0---0-------0-------|-2---2-2---2---2--2--|



|-0-0---0-0-|-----------------------3---3---3-3---3-3-|
|-0-1---1-1-|-----------3---4h==5-------3---3-3---3-3-|
|-0-2---2-2-|---2-4-5-------------------0---0-0---0-0-|
|-2-2---2-2-|---------------------------0---0-0---0-0-|



|-----1-/2---2-2---2---2-2---2h3p2---|
|---3-2-/3---3-3---3---3-3-----------|
|-4---3-/4---4-4---4---4-4-----------|
|-----0-/0---0-0---0---0-0-----------|



|-0---0-0---0---0--0-0-0---0-|---7-5-5------5---5-5---7-7-7-7-|
|-0---0-0---0---0--0-0-1---1-|---5---8--5---3---3-3---7-7-7-7-|
|-0---0-0---0---0--0-0-2---2-|---5---5------2---2-2---7-7-7-7-|
|-2---2-2---2---2--2-2-2---2-|---5---5------0---0-0---7-7-7-7-|



|---0---0-----7-5-5----5---------2-----2-|-----------|
|---1---1-----5---8-5--3-5---5-----5---3-|---5-3-----|
|---2---2-----5---5----2---------------2-|-------5-4-|
|---2---2-----5---5----0---------------0-|-----------|



|---------0---0-0---0---0---0-|-----------0-2---2-|
|---3-5---1---1-1---1---1---1-|-----0-3-0-1-----3-|
|-5-------2---2-2---2---2---2-|-----------2-----2-|
|---------2---2-2---2---2---2-|-----------2-----0-|



|---7-5-5-----5---5-5----|
|---5-----8---5-5-8-3----| Repeat 1x
|---5---------5---5-2----|
|---5---------5---5-0----|

Part 2

|--3---3-3-------------------2--------|
|--0---0-0-------------------3--------|
|--0---0-0---0-0-0---2---4---4--------|
|--0---0-0-------------------0--------|



|-2-2----------------|-0---0-0-----7---5---5---2---2-2---3---3-/5----|
|-3-3---3-----3-/5---|-1---1-1-----5---5---8---3---3-3---3---3-/5----| Repeat 1x
|-4-4----------------|-2---2-2-----5---5---5---4---4-4---0---0-/0----|
|-0-0----------------|-2---2-2-----5---5---5---0---0-0---------------|

Part 3

|-3---3-3-------3-------3---5---5-7---7---7---7-7---7-7-7-|----|
|-3---3-3---3-3-3---5---3-------5-----5---5---5-5---5-5-5-|----|
|-0---0-0-------0-------0-------5-----5---5---5-5---5-5-5-|----|
|-0---0-0-------0-------0-------5-----5---5---5-5---5-5-5-|----|



|-3---3-3-------3-------3---5---5-------2---2---2-2---2-2-2--|
|-3---3-3---3-3-3---5---3-------5---3h5p3---3---3-3---3-3-3--| Repeat 1x
|-0---0-0-------0-------0-------5-------2---2---2-2---2-2-2--|
|-0---0-0-------0-------0-------5-------0---0---0-0---0-0-0--|

Part 4

|---10---10---10-----10----10---8---7---5---3---2---3---5---7---3------|
|----8---------8------------8-----------3---------------3-------3------|
|----7---------7------------7-----------0---------------0-------0------|
|----0---------0------------0-----------0---------------0-------0------|



|-----------3-3-3---3-3-3---0-0-0---0-0-0---0-----2------|
|-3h5p3-----3-3-3---3-3-3---1-1-1---1-1-1---1-----3------| Repeat 1x
|-----------0-0-0---0-0-0---2-2-2---2-2-2---2-----2------|
|-----------0-0-0---0-0-0---2-2-2---2-2-2---2-----0------|

Ending

|-------------------3---3-|
|---------3-4h==5-------3-|
|---2-4-5---------------0-|
|-----------------------0-|



Tablature Legend
----------------
h - hammer-on
p - pull-off
b - bend
pb - pre-bend
r - bend release (if no number after the r, then release immediately)
/\ - slide into or out of (from/to "nowhere")
s - legato slide
S - shift slide
- natural harmonic
[n] - artificial harmonic
n(n) - tapped harmonic
~ - vibrato
tr - trill
T - tap
TP - trem. picking
PM - palm muting
\n/ - tremolo bar dip; n = amount to dip
\n - tremolo bar down
n/ - tremolo bar up
/n\ - tremolo bar inverted dip
= - hold bend; also acts as connecting device for hammers/pulls
<> - volume swell (louder/softer)
x - on rhythm slash represents muted slash
o - on rhythm slash represents single note slash

 

Commentaires (0)
Aucun commentaire :(
Besoin d'aide, envie de partager une astuce, ou simplement de parler de cette chanson? Commencez la discussion!

Vous devez être connecté pour participer à la discussion
ou Inscription

 

A propos de cette chanson

Pas d'information sur cette chanson.