Europa Tab par Carlos Santana

7 Accords utilisés dans la chanson: Gm, C7, F, Am, Dm, A7, A

ImprimerAjouter cette tab à votre SongBook
Tablature / ChordsFont size: A- A A+

Vous ne savez pas comment lire une tablature ou un accord ?
Ne manquez pas nos cours:

Comment lire une tablature pour ukulélé
Comment lire un accord

# EUROPA ? CARLOS SANTANA

# Chords: Gm Gm C7 C7 F F Am Am Dm Dm A7# A7# Strumming: ? ? X ? ? ? X ? ?

# Tab: Part 1, Part 1, Part 2, Part 2(Impro. Dm Dm), Part 3, Part 3, Part 1, Part 1

# Part 1:

A------5-7-8-7-5---------3-5-7-5-3---------1-3-5-3-1------------------0p1--
E?-3/5-----------5-6---3-----------3-5---1-----------1-3--3-3-3-3-1-0------
C--------------------------------------------------------------------------
G--------------------------------------------------------------------------

A---------------/--0p1---------------/-Am Ende wiederholen (leiser werden)--
E--3-1-0--------/------3-1-0---------/---------------------------------------
C--------1-2----/------------1-2-----/---------------------------------------
G---------------/--------------------/---------------------------------------

# Part 2:

Gm Gm C7 C7 F F Am Am Dm Dm
A------5-10/12-12-------12--5-----5--10------10--8------8--7-----7--5-----5
E?-3/5---------10----10-----6---6----8-----8-----8----8----8---8----5---5--
C--------------10-10--------7-7------10-10-------9--9------9-9------5-5----
G--------------10--------------------9-----------10-----------------5------

Gm Gm A7 A7 Dm Dm A7 A7 Dm Dm
A--5-----5--4-----4--5-----5--4-----4--5----------------------------------
E?-6---6----3---3----5---5----3---3----5----------------------------------
C--7-7------4-4------5-5------4-4------5--------
G--------------------5-----------------5------------

# Part 3:

A-------------------------------------------3-------3-3---3-5-3-5-3--------
E----0-1-3/5------3/5-----3/5---3-1-3-1-3/5---1-3/5-----5------------------
C--2---------2-2------2-2-----0--------------------------------------------
G--------------------------------------------------------------------------

A------------------------0h1p---0h1-----------------
E?-5-3/1---3/5---3/5---3------3-----3-1-0-----------
C--------2-----2-----2--------------------1-2-------
G---------------------------------------------------

 

Commentaires (1)
Vous devez être connecté pour participer à la discussion
ou Inscription

 

ukematt avatar
flag for US(ISO2) (San Jose)
A difficult song to tab since Santana is such a incredible guitar player. Very nice job. But the chords don't quite fit for me.
26 Oct 2010
A propos de cette chanson

Pas d'information sur cette chanson.