Antivist (Intro) Tab par Bring Me The Horizon

Tablature Ukulélé sans accords.

Ajouter cette tab à votre SongBook
Tablature / ChordsFont size: A- A A+

Vous ne savez pas comment lire une tablature ou un accord ?
Ne manquez pas nos cours:

Comment lire une tablature pour ukulélé
Comment lire un accord

------------------------------------------------------------------------|
----------------------------------------------------------------------|
------4-4-4-4-4-4-4-4-4-4-4-4-4-4-------4-4-4-4-4-4-4-4-4-4-4-4-4-4---|
10--9------------------------------10--9--------------------------------|

------------------------------------------------------------------------|
----------------------------------------------------------------------|
------4-4-4-4-4-4-4-4-4-4-4-4-4-4-------4-4-4-4-4-4-4-4-4-4-4-4-4-4---|
10--9------------------------------10--9--------------------------------|

------------------------------------------------------------------------|
----------------------------------------------------------------------|
------4-4-4-4-4-4-4-4-4-4-4-4-4-4-------4-4-4-4-4-4-4-4-4-4-4-4-4-4---|
10--9------------------------------10--9--------------------------------|

-------------------------------------------------------6---5---3--|
-------0-0-0-0-0-0-0-0-0-0-0-0-0-0-------0-0-0-0-0-0-4-0-3-0-1--|
---------------------------------------------------------------|
---------------------------------------------------------------|

-----------------------------------------|
-----------------------------------------|
-5-4-4-44-4-4-4-4-4-5-4-4-44-4-4-4-4-4---|
-----------------------------------------|

-------------------------------6---5---3-|
-1-0-0-00-0-0-0-0-0-1-0-0-00-4-0-3-0-1-|
---------------------------------------|
---------------------------------------|

-----------------------------------------|
-----------------------------------------|
-5-4-4-44-4-4-4-4-4-5-4-4-44-4-4-4-4-4---|
-----------------------------------------|

------------------------------6---5---3-|
-1-0-0-00-0-0-0-0-0-1-0-0-00-4-0-3-0-1-|
---------------------------------------|
---------------------------------------|

 

Commentaires (0)
Aucun commentaire :(
Besoin d'aide, envie de partager une astuce, ou simplement de parler de cette chanson? Commencez la discussion!

Vous devez être connecté pour participer à la discussion
ou Inscription

 

A propos de cette chanson

Pas d'information sur cette chanson.