Mellom Bakkar Og Berg Tab par Brainstorm

Tablature Ukulélé sans accords.

Ajouter cette tab à votre SongBook
Tablature / ChordsFont size: A- A A+

Vous ne savez pas comment lire une tablature ou un accord ?
Ne manquez pas nos cours:

Comment lire une tablature pour ukulélé
Comment lire un accord

|-2--------------------2~---------2-5~--2---------------------------|
|---3--0-0---2-3-3---5----3-----3---------3-5~--2-0-3~--------------|
|-------------------------------------------------------------------|
|-------------------------------------------------------------------|
|-2h3-(7)--2-(5)-------2-------2----0-4--22222222-------------------|
|------5~-----3~--5-2~-----3-2-0------2--00000000-------------------|
|-----------------------------------4-------------------------------|
|-------------------------------------------------------------------|

|-------------------------------------------------------------------|
|-3-2--------2-3-3---5----3---------------3-5---2---3---------------|
|------4-4--------------------------2-------------4-----------------|
|----------------------4--------4-5-----4---------------------------|

|---------------------------------7---------------------------------|
|------5-5----3-3--5-2--------------------5---3-2-------------------|
|-------------------------------------------------4-----------------|
|-4-5-------4----------4------4-5----5-4----4-----------------------|

 

Commentaires (0)
Aucun commentaire :(
Besoin d'aide, envie de partager une astuce, ou simplement de parler de cette chanson? Commencez la discussion!

Vous devez être connecté pour participer à la discussion
ou Inscription

 

A propos de cette chanson

Pas d'information sur cette chanson.