Three Little Birds Tab par Bob Marley

1 Accords utilisés dans la chanson :

Ajouter cette tab à votre SongBook

Voir ces acccords pour le Baryton

Changer de tonalité:
Tablature / ChordsFont size: A- A A+

Vous ne savez pas comment lire une tablature ou un accord ?
Ne manquez pas nos cours:

Comment lire une tablature pour ukulélé
Comment lire un accord


A|-0---------------------------------------|
E|-0---------------------------------------|
C|-1---------------------------------------|
G|-2---------------------------------------|



A|-0---------------------------------------|
E|-2---------------------------------------|
C|-2---------------------------------------|
G|-2---------------------------------------|



A|----------------------------------------|
E|-4---------------------------------------|
C|-4---------------------------------------|
G|-4---------------------------------------|

 

Commentaires (0)
Aucun commentaire :(
Besoin d'aide, envie de partager une astuce, ou simplement de parler de cette chanson? Commencez la discussion!

Vous devez être connecté pour participer à la discussion
ou Inscription

 

A propos de cette chanson

Pas d'information sur cette chanson.