Beat The Devils Tattoo Tab par Black Rebel Motorcycle Club

Tablature Ukulélé sans accords.

Ajouter cette tab à votre SongBook
Tablature / ChordsFont size: A- A A+

Vous ne savez pas comment lire une tablature ou un accord ?
Ne manquez pas nos cours:

Comment lire une tablature pour ukulélé
Comment lire un accord

A|----------------3-------------5-3----------------------------------------|
E|--1-------------------1-------------------------1-0----------------------|
C|2-----------------------2---------------------------2--------------------|
G|----0-2-2-----2---2-0-------------2-0-2-2-0-2-0--------------------------|

A|-------------------------------------------------------------------------|
E|-5----3---1---1----------------------------------------------------------|
C|-2----2---2---2----------------------------------------------------------|
G|-9----7---5---7----------------------------------------------------------|

 

Commentaires (0)
Aucun commentaire :(
Besoin d'aide, envie de partager une astuce, ou simplement de parler de cette chanson? Commencez la discussion!

Vous devez être connecté pour participer à la discussion
ou Inscription

 

A propos de cette chanson

Pas d'information sur cette chanson.