Duelling Banjos Tab par Billy Redden And Ronny Cox

Tablature Ukulélé sans accords.

Notez la chanson !
ImprimerAjouter cette tab à votre SongBook

Tablature / Chords (

Font size: A- A A+

Album:  inconnu
Tonalité: inconnuTablature (sans accords)
A--0-1-3-0--1---0-----------
E-------------3---1-3-------
C---------------------------
G---------------------------

A----------------------------------------
E----1-1-3-5-1-5-3----------1-1-3-5-1-0--
C--0-----------------------0-------------
G----------------------------------------

A---------------------------------
E----1-1-3-5-6-5-3-1-0------------
C--0-------------------0-2-4-5-5--
G---------------------------------

Commentaires (0)

Aucun commentaire :(
Besoin d'aide, envie de partager une astuce, ou simplement de parler de cette chanson? Commencez la discussion!

Commenter
Partagez vos rythmiques, vos accords ou vos astuces pour jouer cette tablature!

Top Tabs et Accords de Billy Redden And Ronny Cox, ne manquez pas ces chansons!

A propos de cette chanson: Duelling Banjos

Pas d'information sur cette chanson.

As-tu repris Duelling Banjos sur ton Ukulélé ? Partage ta reprise!
Ajouter une reprise