Twisted Nerve (Solo) Tab par Bernard Herrmann

Tablature Ukulélé sans accords.

Ajouter cette tab à votre SongBook
Tablature / ChordsFont size: A- A A+

Vous ne savez pas comment lire une tablature ou un accord ?
Ne manquez pas nos cours:

Comment lire une tablature pour ukulélé
Comment lire un accord

A|------------------------------------------------------------------------------|
E|-7----5----7---7---5-----5----3----5---5---3-----7---7---5---5---7---7---5----|
C|------------------------------------------------------------------------------|
G|------------------------------------------------------------------------------|

|-----------------------------------------------------------------------------------------|
|-5---5---3---3---5---5---3-----3P2--0---2---3---3P2--0---2---3----3P2--0---2---3---7-----|
|-----------------------------------------------------------------------------------------|
|-----------------------------------------------------------------------------------------|

|--------------------------------------------------------------------------------------------|
|-3---5---7---5---3---5---7---5----3---5---7---5---3---5---------------------------------3---|
|--------------------------------------------------------------------------------------------|
|--------------------------------------------------------------------------------------------|

|------------------------------------------------------------------------------|
|-7----5----7---7---5-----5----3----5---5---3-----7---7---5---5---7---7---5----|
|------------------------------------------------------------------------------|
|------------------------------------------------------------------------------|

|-------------------------------7----5----7---7---5-----7----5----7---7---5----|
|-5---5---3---3---5---5---3----------------------------------------------------|
|------------------------------------------------------------------------------|
|------------------------------------------------------------------------------|

|-7------5-------7------5-------7--------5-------|
|------------------------------------------------|
|------------------------------------------------|
|------------------------------------------------|

 

Commentaires (0)
Aucun commentaire :(
Besoin d'aide, envie de partager une astuce, ou simplement de parler de cette chanson? Commencez la discussion!

Vous devez être connecté pour participer à la discussion
ou Inscription

 

A propos de cette chanson

Pas d'information sur cette chanson.