Fur Elise Tab par Beethoven, Ludwig Van

Tablature Ukulélé sans accords.

ImprimerAjouter cette tab à votre SongBook
Tablature / ChordsFont size: A- A A+

Vous ne savez pas comment lire une tablature ou un accord ?
Ne manquez pas nos cours:

Comment lire une tablature pour ukulélé
Comment lire un accord

A|--7---6---7---6---7---2---5---3---0-----------0---2|
E|------------------------------------------0--------|
C|--------------------------------------0------------|
G|---------------------------------------------------|



A|--3-------7---6---7---6---7---2---5---3---0-----------0|
E|------0-------------------------------------------0----|
C|----------------------------------------------0--------|
G|-------------------------------------------------------|



A|--2-------3---2---0---2---3---5---7-------8---7---5----|
E|------0------------------------------------------------|
C|------------------------------------------------------5|
G|--------------------------------------0----------------|



A|--7---5---3-------5---3---2---7---6---7---6---7---2---5|
E|--------------0----------------------------------------|
C|-------------------------------------------------------|
G|-------------------------------------------------------|



A|--3---0-----------0---2-------3---2---0-----------|
E|--------------0-----------0-----------------------|
C|----------0---------------------------------------|
G|--------------------------------------------------|

 

Commentaires (3)
Vous devez être connecté pour participer à la discussion
ou Inscription

 

wejw avatar
flag for US(ISO2) (AUBURN)
he didn't
30 Apr 2019
rosa2k10 avatar
I didn't know Beethoven played ukulele!!!
23 Mar 2016
S1Miranda avatar
wo
02 Mar 2016
A propos de cette chanson

Pas d'information sur cette chanson.