Fur Elise Tab par Beethoven, Ludwig Van

Tablature Ukulélé sans accords.

ImprimerAjouter cette tab à votre SongBook
Tablature / ChordsFont size: A- A A+

Vous ne savez pas comment lire une tablature ou un accord ?
Ne manquez pas nos cours:

Comment lire une tablature pour ukulélé
Comment lire un accord

Note the repeat marks at the end of measure 9, with 2nd varient ending in measure 10.
If you are using a soprano, you won't be able to play the 19th fret in measure 16 - play a 7 instead.

||------7-6-|-7-6-7-2-5-3-|-0-------0-|-2-------2-|-3-----7-6--|
||o---------|-------------|-------0---|-0---0-4---|-----0------|
||o---------|-------------|-----0-----|-----------|------------|
||----------|-------------|-----------|-----------|-2----------|

1. 2.
|-7-6-7-2-5-3-|-0-------0-|-2-----3-2-|-0-------||-0---2-3-5--|
|-------------|-------0---|-0---0-----|--------o||------------|
|-------------|-----0-----|-----------|--------o||------------|
|-------------|-----------|-----------|---------||------------|


|-7-----8-7-|-5-----7-5-|-3-----5-3-|-2--7---7---|-7---19-6-7-6-|-7-6-7-6-7-6-|
|-----------|-----1-----|-----0-----|-0----0---0-|---0----------|-------------|
|-----------|-----------|-----------|------------|--------------|-------------|
|-2---0-----|-----------|-----------|------------|--------------|-------------|


|-7-6-7-2-5-3-|-0-------0-|-2-------2-|-3-----7-6-|-7-6-7-2-5-3--|
|-------------|-------0---|-0---0-4---|-----0-----|--------------|
|-------------|-----0-----|-----------|-----------|--------------|
|-------------|-----------|-----------|-2---------|--------------|


|-0-------0-|-2-----3-2-|-0------|
|-------0---|-0---------|--------|
|-----0-----|-----2-----|-0------|
|-----------|-----------|--------|

 

Commentaires (2)
Vous devez être connecté pour participer à la discussion
ou Inscription

 

UkeBruno avatar
flag for AR(ISO2) (Ciudad de Buenos Aires)
Mozart?
18 Oct 2011
xXx-awesome-xXx avatar
It's not Mozart, it's Beethoven!
18 Oct 2011
A propos de cette chanson

Pas d'information sur cette chanson.