Fur Elise Tab par Beethoven, Ludwig Van

Tablature Ukulélé sans accords.

ImprimerAjouter cette tab à votre SongBook
Tablature / ChordsFont size: A- A A+

Vous ne savez pas comment lire une tablature ou un accord ?
Ne manquez pas nos cours:

Comment lire une tablature pour ukulélé
Comment lire un accord

A-8-7-8-7-8-3-6-4---1-3---3-4---8-7-8-7-8-3-6-4-1---1-3---4-3-1-3-4-6-8-1-
E-----------------1-----1-----1-------------------1-----1-----------------
C-------------------------------------------------------------------------
G-------------------------------------------------------------------------

A-9-8-6-1-8-6-4-1-6-4-3---------------------------------------------------
E-----------------------1-------------------------------------------------
C-------------------------------------------------------------------------
G-------------------------------------------------------------------------

 

Commentaires (0)
Aucun commentaire :(
Besoin d'aide, envie de partager une astuce, ou simplement de parler de cette chanson? Commencez la discussion!

Vous devez être connecté pour participer à la discussion
ou Inscription

 

A propos de cette chanson

Pas d'information sur cette chanson.