When Two Are One (Intro) Tab par Atreyu

Tablature Ukulélé sans accords.

Ajouter cette tab à votre SongBook
Tablature / ChordsFont size: A- A A+

Vous ne savez pas comment lire une tablature ou un accord ?
Ne manquez pas nos cours:

Comment lire une tablature pour ukulélé
Comment lire un accord

A|-4--------------------------------------|
E|-----6----------------------------------|
C|---5---5--------------------------------| x4
G|----------------------------------------|


A|-3--------------------------------------|
E|-----4----------------------------------|
C|---5---5--------------------------------| x4
G|----------------------------------------|


A|-3--------------------------------------|
E-----3-----------------------------------|
C|---4---4--------------------------------| x4
G|----------------------------------------|


A|-3--------------------------------------|
E|-----4----------------------------------|
C|---5---5--------------------------------| x4
G|----------------------------------------|

 

Commentaires (0)
Aucun commentaire :(
Besoin d'aide, envie de partager une astuce, ou simplement de parler de cette chanson? Commencez la discussion!

Vous devez être connecté pour participer à la discussion
ou Inscription

 

A propos de cette chanson

Pas d'information sur cette chanson.