Cheat Day Tab par Atlas

Tablature Ukulélé sans accords.

Ajouter cette tab à votre SongBook
Tablature / ChordsFont size: A- A A+

Vous ne savez pas comment lire une tablature ou un accord ?
Ne manquez pas nos cours:

Comment lire une tablature pour ukulélé
Comment lire un accord

A|---------3-------------3------------|
E|-4444-6--------4444-6-------------------------|
C|----------------------------------------|
G|----------------------------------------|



A|--------1-------------------------------|
E|-4444----44-------------------------------|
C|-----------3-------------------------|
G|----------------------------------------|



A|-----------3-------------------------|
E|-4444-6--------4444-6---------------------------|
C|----------------------------------------|
G|----------------------6-3-----------|


A|--------1331------------------------------|
E|-4444--------4------------------------------|
C|----------------------------------------|
G|----------------------------------------|



A|----6863-----------6863-------------------------|
E|---------4--------------4-------------|
C|-3--------------3----------------------|
G|----------------------------------------|


A|-686 3------6863---------------------------------|
E|---------4-----------4-------------------|
C|-------------------------310---------|
G|----------------------------------------|



A|-6863---66863------6863---------------------------|
E|--------4----------4----44-----------|
C|---------------------------55----|
G|----------------------------------------|



A|----------------------------------------|
E|----------------------------------------|
C|-33---------------------------------------|
G|----------------------------------------|



A|----------------------------------------|
E|----------689--6689-------------------------|
C|--------5--------------------------------|
G|----------------------------------------|



A|----------------------------------------|
E|-6668986 66689884---------------------------------------|
C|----------------------------------------|
G|----------------------------------------|



A|-31 31 6689---------------------------------------|
E|----------------------------------------|
C|----------------------------------------|
G|----------------------------------------|



A|--663 8 11 10 8 6--------------------------------------|
E|----------------------------------------|
C|----------------------------------------|
G|----------------------------------------|

 

Commentaires (0)
Aucun commentaire :(
Besoin d'aide, envie de partager une astuce, ou simplement de parler de cette chanson? Commencez la discussion!

Vous devez être connecté pour participer à la discussion
ou Inscription

 

A propos de cette chanson

Pas d'information sur cette chanson.