Interlude Ii Tab par Alt-J

1 Accords utilisés dans la chanson :

Ajouter cette tab à votre SongBook

Voir ces acccords pour le Baryton

Changer de tonalité:
Tablature / ChordsFont size: A- A A+

Vous ne savez pas comment lire une tablature ou un accord ?
Ne manquez pas nos cours:

Comment lire une tablature pour ukulélé
Comment lire un accord


S
A|---2---------2-------2-------2---------------------------------------------|
E|------2--4-0-----4-2-------0-----------------------------------------------|
C|4------------------------6-------------------------------------------------|
F# --- ---------- ------- ------- -------------------------------------------
S
A|---2---------2-------2-------2---------------------------------------------|
E|------2--4-0-----4-2-------0-----------------------------------------------|
C|4------------------------6-------------------------------------------------|
F# --- ---------- ------- ------- -------------------------------------------
H
A|--2----------2-------2-------2---------------------------------------------|
E|------5--4-0-----4-0-------0-----------------------------------------------|
C|4------------------------6-------------------------------------------------|
F# --- ---------- ------- ------- -------------------------------------------
S
A|---2---------2-------2-------2---------------------------------------------|
E|------2--4-0-----4-2-------0-----------------------------------------------|
C|4------------------------6-------------------------------------------------|
F# --- ---------- ------- ------- -------------------------------------------
H
A|0-2-----------2-------2---0---2--------------------------------------------|
E|------------0-------0-------0----------------------------------------------|
C|---------------------------------------------------------------------------|
F# --- -9-- ------ - ----- ------- ------------------------------------------
S H H
A|----2--------2-------2-----2-0-2-----2-----2-0-2---------------------------|
E|--0---0--2-0-----5-0-----0---------0-----0---------------------------------|
C|2--------------------------------6-----------------------------------------|
F# ---- --------- ------- --------------- -----------------------------------
S
A|---2---------2-------2-------2---------------------------------------------|
E|------2--4-0-----4-2-------0-----------------------------------------------|
C|4------------------------6-------------------------------------------------|
F# --- ---------- ------- ------- -------------------------------------------
S
A|---2---------2-------2-------2---------------------------------------------|
E|------2--4-0-----4-2-------0-----------------------------------------------|
C|4------------------------6-------------------------------------------------|
F# --- ---------- ------- ------- -------------------------------------------
H
A|--2----------2-------2-------2---------------------------------------------|
E|------5--4-0-----4-0-------0-----------------------------------------------|
C|4------------------------6-------------------------------------------------|
F# --- ---------- ------- ------- -------------------------------------------
S
A|---2---------2-------2-------2---------------------------------------------|
E|------2--4-0-----4-2-------0-----------------------------------------------|
C|4------------------------6-------------------------------------------------|
F# --- ---------- ------- ------- -------------------------------------------
H
A|0-2-----------2-------2---0---2--------------------------------------------|
E|------------0-------0-------0----------------------------------------------|
C|---------------------------------------------------------------------------|
F# --- -9-- ------ - ----- ------- ------------------------------------------
S H H S
A|----2--------2-------2-----2-0-2-----2-----2-0-2---------------------------|
E|--0---0--2-0-------0-----0---------0-----0---------------------------------|
C|2----------------2---------------6---------------2-4-----------------------|
F# ---- --------- ------- --------------- -----------------------------------

 

Commentaires (0)
Aucun commentaire :(
Besoin d'aide, envie de partager une astuce, ou simplement de parler de cette chanson? Commencez la discussion!

Vous devez être connecté pour participer à la discussion
ou Inscription

 

A propos de cette chanson

Pas d'information sur cette chanson.