Rocker Tab par Ac Dc

Tablature Ukulélé sans accords.

Ajouter cette tab à votre SongBook
Tablature / ChordsFont size: A- A A+

Vous ne savez pas comment lire une tablature ou un accord ?
Ne manquez pas nos cours:

Comment lire une tablature pour ukulélé
Comment lire un accord

| h  Hammer-on
| * repeat
| p Pull-off
| b Bend
| r Release
| ~ Vibrato

H H H
A|--------0--|-----0--0----0----0--0--|-----0--0----0----0--0--|
E|-----------|--0--0--2----0----2-----|--0--0--2----0----2-----|
C|--------2--|---------------------2--|---------------------2--|
G|-----------|-----2------------------|-----2------------------|
H H H
A|-----0--0----0----0--0--|-----0--0----0----0-----|------------------------|
E|--0--0--2----0----2-----|--0--0--2----0----2-----|------------------------|
C|---------------------2--|---------------------2--|-----2--2----2----2--2--|
G|-----2------------------|-----2---------------0--|--2--2--4----2----4--0--|

A|-----5--5----5----5--0--|--7--0--0----0----0--0--|--7--0--0----0----0--0h-|
E|------------------------|------------------------|---------------------0--|
C|---------------------2--|-----4--6----4----6--2--|-----4--6----4----6-----|
G|--2--2--4----2----4-----|-----2------------------|-----2------------------|

A|--2--2--4----2----4--0h-|--2--2--4----2----4--0--|--7--0--0----0----0--0--|
E|-----0--0----0----0--0--|-----0--0----0----0-----|------------------------|
C|------------------------|---------------------2--|-----4--6----4----6--2--|
G|------------------------|------------------------|-----2------------------|
H H H
A|-----0--0----0----0--0--|-----0--0----0----0--0--|-----0--0----0----0--0--|
E|--0--0--2----0----2-----|--0--0--2----0----2-----|--0--0--2----0----2-----|
C|---------------------2--|---------------------2--|---------------------2--|
G|-----2------------------|-----2------------------|-----2------------------|
H H H
A|-----0--0----0----0--0--|-----0--0----0----0-----|------------------------|
E|--0--0--2----0----2-----|--0--0--2----0----2-----|------------------------|
C|---------------------2--|---------------------2--|-----2--2----2----2--2--|
G|-----2------------------|-----2---------------0--|--2--2--4----2----4--0--|

A|-----5--5----5----5--0--|--7--0--0----0----0--0--|--7--0--0----0----0--0h-|
E|------------------------|------------------------|---------------------0--|
C|---------------------2--|-----4--6----4----6--2--|-----4--6----4----6-----|
G|--2--2--4----2----4-----|-----2------------------|-----2------------------|

A|--2--2--4----2----4--0h-|--2--2--4----2----4--0--|--7--0--0----0----0--0--|
E|-----0--0----0----0--0--|-----0--0----0----0-----|------------------------|
C|------------------------|---------------------2--|-----4--6----4----6--2--|
G|------------------------|------------------------|-----2------------------|
H
A|-----0--0----0----0--0--|--0----------------|--0----------------|
E|--0--0--2----0----2-----|--0----------------|--0----------------|
C|---------------------2--|-------------------|-------------------|
G|-----2------------------|--2----------------|--2----------------|
H
A|--0----------------|--0----------------|------------------------|
E|--0----------------|--0----------------|------------------------|
C|-------------------|-------------------|-----2--2----2----2--2--|
G|--2----------------|--2----------------|--2--2--4----2----4--0--|

A|-----5--5----5----5--0--|--7--0--0----0----0--0--|--7--0--0----0----0--0h-|
E|------------------------|------------------------|---------------------0--|
C|---------------------2--|-----4--6----4----6--2--|-----4--6----4----6-----|
G|--2--2--4----2----4-----|-----2------------------|-----2------------------|

A|--2--2--4----2----4--0h-|--2--2--4----2----4--0--|--7--0--0----0----0--0--|
E|-----0--0----0----0--0--|-----0--0----0----0-----|------------------------|
C|------------------------|---------------------2--|-----4--6----4----6--2--|
G|------------------------|------------------------|-----2------------------|
H H H
A|-----0--0----0----0--0--|-----0--0----0----0--0--|-----0--0----0----0--0--|
E|--0--0--2----0----2-----|--0--0--2----0----2-----|--0--0--2----0----2-----|
C|---------------------2--|---------------------2--|---------------------2--|
G|-----2------------------|-----2------------------|-----2------------------|
H H H
A|-----0--0----0----0--0--|-----0--0----0----0-----|------------------------|
E|--0--0--2----0----2-----|--0--0--2----0----2-----|------------------------|
C|---------------------2--|---------------------2--|-----2--2----2----2--2--|
G|-----2------------------|-----2---------------0--|--2--2--4----2----4--0--|

A|-----5--5----5----5--0--|--7--0--0----0----0--0--|--7--0--0----0----0--0h-|
E|------------------------|------------------------|---------------------0--|
C|---------------------2--|-----4--6----4----6--2--|-----4--6----4----6-----|
G|--2--2--4----2----4-----|-----2------------------|-----2------------------|

A|--2--2--4----2----4--0h-|--2--2--4----2----4--0--|--7--0--0----0----0--0--|
E|-----0--0----0----0--0--|-----0--0----0----0-----|------------------------|
C|------------------------|---------------------2--|-----4--6----4----6--2--|
G|------------------------|------------------------|-----2------------------|
H H H
A|-----0--0----0----0--0--|-----0--0----0----0--0--|-----0--0----0----0--0--|
E|--0--0--2----0----2-----|--0--0--2----0----2-----|--0--0--2----0----2-----|
C|---------------------2--|---------------------2--|---------------------2--|
G|-----2------------------|-----2------------------|-----2------------------|
H H H
A|-----0--0----0----0--0--|-----0--0----0----0-----|------------------------|
E|--0--0--2----0----2-----|--0--0--2----0----2-----|------------------------|
C|---------------------2--|---------------------2--|-----2--2----2----2--2--|
G|-----2------------------|-----2---------------0--|--2--2--4----2----4--0--|

A|-----5--5----5----5--0--|--7--0--0----0----0--0--|--7--0--0----0----0--0h-|
E|------------------------|------------------------|---------------------0--|
C|---------------------2--|-----4--6----4----6--2--|-----4--6----4----6-----|
G|--2--2--4----2----4-----|-----2------------------|-----2------------------|

A|--2--2--4----2----4--0h-|--2--2--4----2----4--0--|--7--0--0----0----0--0--|
E|-----0--0----0----0--0--|-----0--0----0----0-----|------------------------|
C|------------------------|---------------------2--|-----4--6----4----6--2--|
G|------------------------|------------------------|-----2------------------|
H
A|-----0--0----0----0--0--|--0----------------|--0----------------|
E|--0--0--2----0----2-----|--0----------------|--0----------------|
C|---------------------2--|-------------------|-------------------|
G|-----2------------------|--2----------------|--2----------------|
H
A|--0----------------|--0----------------|------------------------|
E|--0----------------|--0----------------|------------------------|
C|-------------------|-------------------|-----2--2----2----2--2--|
G|--2----------------|--2----------------|--2--2--4----2----4--0--|

A|-----5--5----5----5--0--|--7--0--0----0----0--0--|--7--0--0----0----0--0h-|
E|------------------------|------------------------|---------------------0--|
C|---------------------2--|-----4--6----4----6--2--|-----4--6----4----6-----|
G|--2--2--4----2----4-----|-----2------------------|-----2------------------|

A|--2--2--4----2----4--0h-|--2--2--4----2----4--0--|--7--0--0----0----0--0--|
E|-----0--0----0----0--0--|-----0--0----0----0-----|------------------------|
C|------------------------|---------------------2--|-----4--6----4----6--2--|
G|------------------------|------------------------|-----2------------------|
H H H
A|-----0--0----0----0--0--|-----0--0----0----0--0--|-----0--0----0----0--0--|
E|--0--0--2----0----2-----|--0--0--2----0----2-----|--0--0--2----0----2-----|
C|---------------------2--|---------------------2--|---------------------2--|
G|-----2------------------|-----2------------------|-----2------------------|
H H H
A|-----0--0----0----0--0--|-----0--0----0----0-----|------------------------|
E|--0--0--2----0----2-----|--0--0--2----0----2-----|------------------------|
C|---------------------2--|---------------------2--|-----2--2----2----2--2--|
G|-----2------------------|-----2---------------0--|--2--2--4----2----4--0--|

A|-----5--5----5----5--0--|--7--0--0----0----0--0--|--7--0--0----0----0--0h-|
E|------------------------|------------------------|---------------------0--|
C|---------------------2--|-----4--6----4----6--2--|-----4--6----4----6-----|
G|--2--2--4----2----4-----|-----2------------------|-----2------------------|

A|--2--2--4----2----4--0h-|--2--2--4----2----4--0--|--7--0--0----0----0--0--|
E|-----0--0----0----0--0--|-----0--0----0----0-----|------------------------|
C|------------------------|---------------------2--|-----4--6----4----6--2--|
G|------------------------|------------------------|-----2------------------|
H H H
A|-----0--0----0----0--0--|-----0--0----0----0--0--|-----0--0----0----0--0--|
E|--0--0--2----0----2-----|--0--0--2----0----2-----|--0--0--2----0----2-----|
C|---------------------2--|---------------------2--|---------------------2--|
G|-----2------------------|-----2------------------|-----2------------------|
H H H
A|-----0--0----0----0--0--|-----0--0----0----0-----|------------------------|
E|--0--0--2----0----2-----|--0--0--2----0----2-----|------------------------|
C|---------------------2--|---------------------2--|-----2--2----2----2--2--|
G|-----2------------------|-----2---------------0--|--2--2--4----2----4--0--|

A|-----5--5----5----5--0--|--7--0--0----0----0--0--|--7--0--0----0----0--0h-|
E|------------------------|------------------------|---------------------0--|
C|---------------------2--|-----4--6----4----6--2--|-----4--6----4----6-----|
G|--2--2--4----2----4-----|-----2------------------|-----2------------------|

A|--2--2--4----2----4--0h-|--2--2--4----2----4--0--|--7--0--0----0----0--0--|
E|-----0--0----0----0--0--|-----0--0----0----0-----|------------------------|
C|------------------------|---------------------2--|-----4--6----4----6--2--|
G|------------------------|------------------------|-----2------------------|
H H H
A|-----0--0----0----0--0--|-----0--0----0----0--0--|-----0--0----0----0--0--|
E|--0--0--2----0----2-----|--0--0--2----0----2-----|--0--0--2----0----2-----|
C|---------------------2--|---------------------2--|---------------------2--|
G|-----2------------------|-----2------------------|-----2------------------|
H H H
A|-----0--0----0----0--0--|-----0--0----0----0-----|------------------------|
E|--0--0--2----0----2-----|--0--0--2----0----2-----|------------------------|
C|---------------------2--|---------------------2--|-----2--2----2----2--2--|
G|-----2------------------|-----2---------------0--|--2--2--4----2----4--0--|

A|-----5--5----5----5--0--|--7--0--0----0----0--0--|--7--0--0----0----0--0h-|
E|------------------------|------------------------|---------------------0--|
C|---------------------2--|-----4--6----4----6--2--|-----4--6----4----6-----|
G|--2--2--4----2----4-----|-----2------------------|-----2------------------|

A|--2--2--4----2----4--0h-|--2--2--4----2----4--0--|--0----------------|
E|-----0--0----0----0--0--|-----0--0----0----0-----|-------------------|
C|------------------------|---------------------2--|--4----------------|
G|------------------------|------------------------|--2----------------|

A|------------------|------------------|------------------|--0----------------|
E|------------------|------------------|------------------|--0----------------|
C|------------------|------------------|------------------|-------------------|
G|------------------|------------------|------------------|--2----------------|

A|--0----------------|--0--------0--------|--0----0----0----0----|
E|--0----------------|--0--------0--------|--0----0----0----0----|
C|-------------------|--------------------|----------------------|
G|--2----------------|--2--------2--------|--2----2----2----2----|
H H H
A|------0--0----0----0--0---||-----0--0----0----0--0--|-----0--0----0----0--0--|
E|---0--0--2----0----2------||--0--0--2----0----2-----|--0--0--2----0----2-----|
C|*---------------------2--*||---------------------2--|---------------------2--|
G|*------------------------*||------------------------|------------------------|
H H H
A|-----0--0----0----0--0--|-----0--0----0----0--0--|-----0--0----0----0--0--|
E|--0--0--2----0----2-----|--0--0--2----0----2-----|--0--0--2----0----2-----|
C|---------------------2--|---------------------2--|---------------------2--|
G|------------------------|------------------------|------------------------|
H H H
A|-----0--0----0----0--0--|-----0--0----0----0--0--|-----0--0----0----0--0--|
E|--0--0--2----0----2-----|--0--0--2----0----2-----|--0--0--2----0----2-----|
C|---------------------2--|---------------------2--|---------------------2--|
G|------------------------|------------------------|------------------------|
H H H
A|-----0--0----0----0--0--|-----0--0----0----0--0--|-----0--0----0----0--0--|
E|--0--0--2----0----2-----|--0--0--2----0----2-----|--0--0--2----0----2-----|
C|---------------------2--|---------------------2--|---------------------2--|
G|------------------------|------------------------|------------------------|
H H H
A|-----0--0----0----0--0--|-----0--0----0----0--0--|-----0--0----0----0--0--|
E|--0--0--2----0----2-----|--0--0--2----0----2-----|--0--0--2----0----2-----|
C|---------------------2--|---------------------2--|---------------------2--|
G|------------------------|------------------------|------------------------|
H H H
A|-----0--0----0----0--0--|-----0--0----0----0--0--|-----0--0----0----0--0--|
E|--0--0--2----0----2-----|--0--0--2----0----2-----|--0--0--2----0----2-----|
C|---------------------2--|---------------------2--|---------------------2--|
G|------------------------|------------------------|------------------------|
H H H
A|-----0--0----0----0--0--|-----0--0----0----0--0--|-----0--0----0----0--0--|
E|--0--0--2----0----2-----|--0--0--2----0----2-----|--0--0--2----0----2-----|
C|---------------------2--|---------------------2--|---------------------2--|
G|------------------------|------------------------|------------------------|
H H H
A|-----0--0----0----0--0--|-----0--0----0----0--0--|-----0--0----0----0--0--|
E|--0--0--2----0----2-----|--0--0--2----0----2-----|--0--0--2----0----2-----|
C|---------------------2--|---------------------2--|---------------------2--|
G|------------------------|------------------------|------------------------|
H H H
A|-----0--0----0----0--0--|-----0--0----0----0--0--|-----0--0----0----0--0--|
E|--0--0--2----0----2-----|--0--0--2----0----2-----|--0--0--2----0----2-----|
C|---------------------2--|---------------------2--|---------------------2--|
G|------------------------|------------------------|------------------------|
H H H
A|-----0--0----0----0--0--|-----0--0----0----0--0--|-----0--0----0----0--0--|
E|--0--0--2----0----2-----|--0--0--2----0----2-----|--0--0--2----0----2-----|
C|---------------------2--|---------------------2--|---------------------2--|
G|------------------------|------------------------|------------------------|
H
A|-----0--0----0----0--0--||
E|--0--0--2----0----2-----||
C|---------------------2--||
G|------------------------||

A|-------------------|------------------|----------------2--|
E|--5----------------|------------------|-------------------|
C|-------------------|------------------|-------------------|
G|-------------------|------------------|-------------------|
P P P P
A|------2-----2-----2-----2--|--------------------|
E|--5------3-----2-----1-----|--------------------|
C|---------------------------|--------------------|
G|---------------------------|--5-----------------|

A|---------------------------------|----------------------|
E|-------5-----------5---------5---|----------------------|
C|---------------6---------6-------|----------------------|
G|--4--------4---------------------|------------4-----9---|
P P
A|------------------------|--------------------------------|
E|--------------------5---|----------5---------5-----------|
C|------------------------|--------------------------------|
G|--4-----------4---------|--5---4-------4-------------4---|
P
A|------------------------------|
E|--------5---------------------|
C|------------------------------|
G|----4-------4-----4-------4---|

A|--------------------------------------------------|
E|--------------------------------------------------|
C|--------------------------------------------------|
G|--4---9---6---9---6---9---6---9---6---9---6---9---|

A|--------------------------------------------------|
E|--------------------------------------------------|
C|--------------------------------------------------|
G|--6---9---6---9---6---9---6---9---6---9---6---9---|

A|--------------------------------------------------|
E|--------------------------------------------------|
C|--------------------------------------------------|
G|--6---9---6---9---6---9---6---9---6---9---6---9---|

A|--------------------------------------------------|
E|--------------------------------------------------|
C|--------------------------------------------------|
G|--6---9---6---9---6---9---6---9---6---9---6---9---|

A|------------------------------------------------|
E|------------------------------------------------|
C|------------------------------------------------|
G|--6---9---6---9---6---9---6---9---6---9-----4---|
P P
A|--------------------------------|-------------7-------------7--|
E|--------5-----------5-----------|--3----5--3-----3----5--3-----|
C|----------------6-------6-------|------------------------------|
G|--4---------4-------------------|------------------------------|
P P P P
A|-------------7-------------7--|-------------7-------------7--|
E|--3----5--3-----3----5--3-----|--3----5--3-----3----5--3-----|
C|------------------------------|------------------------------|
G|------------------------------|------------------------------|
P P P P
A|-------------7-------------7--|-------------7-------------7--|
E|--3----5--3-----3----5--3-----|--3----5--3-----3----5--3-----|
C|------------------------------|------------------------------|
G|------------------------------|------------------------------|
P P P
A|-------------7-------------7--|-------------7------------|-------------------|
E|--3----5--3-----3----5--3-----|--3----5--3---------------|--5----------------|
C|------------------------------|------------------2-------|-------------------|
G|------------------------------|-------------------r---5--|-------------------|
~
A|-----------------------------|-----------------------|
E|--3--5--5---5--5---5--5---5--|--5---5--5-------------|
C|-----------------------------|-----------------------|
G|-----------------------------|-----------------------|
~
A|-----------------------------|-----------------------|
E|--3--5--5---5--5---5--5---5--|--5---5--5-------------|
C|-----------------------------|-----------------------|
G|-----------------------------|-----------------------|
~ P
A|-----------------------------|-------------------------|-----7-----------------
E|--3--5--5---5--5---5--5---5--|--5---5--5-----------5---|--3-----3----------5---
C|-----------------------------|-------------------------|-----------------------
G|-----------------------------|-------------------------|-----------------------
P P P P
A|-----7----------------|--------7--------7-----7-------------|
E|--3-----3----------5--|-----5-----5--3-------------------5--|
C|----------------------|--------------------2-------2--------|
G|----------------------|--5----------------------------5-----|
H
A|-----------------------|----------------7--------|------------------|
E|-----5-----------5--3--|--5----------5-----3--3--|------------------|
C|--2--------------------|-------------------------|------------------|
G|--------5b-------------|-------5--6--------------|------------------|

A|--------------------|------------------|--------------------|------------------
E|--------------------|------------------|--------------------|------------------
C|--------------------|------------------|--------------------|------------------
G|--4-----------------|------------------|--4-----------------|------------------

A|--------------------|------------------|--------------------|------------------
E|--------------------|------------------|--------------------|------------------
C|--------------------|------------------|--------------------|------------------
G|--5-----------------|------------------|--4-----------------|------------------

A|----------------------|------------------|------------------------|
E|----------------------|------------------|--------------------5---|
C|----------------------|------------------|------------------------|
G|--7---------------7---|------------------|--5-------------4-------|
P P P P
A|-----------------------7--|-------------7----------------7--|
E|--------------------5-----|--5-------5-----5----------5-----|
C|--------------------------|---------------------------------|
G|--------------5--4--------|-------4-------------5--4--------|
P P P P P P
A|-------------7----------------7--|-------------7----------------7--|
E|--5-------5-----5----------5-----|--5-------5-----5----------5-----|
C|---------------------------------|---------------------------------|
G|-------4-------------5--4--------|-------4-------------5--4--------|
P P P P P P
A|-------------7----------------7--|-------------7----------------7--|
E|--5-------5-----5----------5-----|--5-------5-----5----------5-----|
C|---------------------------------|---------------------------------|
G|-------4-------------5--4--------|-------4-------------5--4--------|
P P P P P P
A|-------------7----------------7--|-------------7----------------7--|
E|--5-------5-----5----------5-----|--5-------5-----5----------5-----|
C|---------------------------------|---------------------------------|
G|-------4-------------5--4--------|-------4-------------5--4--------|
P P P P P P
A|-------------7----------------7--|-------------7----------------7--|
E|--5-------5-----5----------5-----|--5-------5-----5----------5-----|
C|---------------------------------|---------------------------------|
G|-------4-------------5--4--------|-------4-------------5--4--------|
P P P
A|-------------7----------------7--|-------------------|--0---------------0----|
E|--5-------5-----5----------5-----|--5----------------|--------0---------0----|
C|---------------------------------|-------------------|-----1-----------------|
G|-------4-------------5--4--------|-------------------|-----------2------2----|
H H
A|------------------|----------------0--|-----0--0----0----0--0--|
E|------------------|-------------------|--0--0--2----0----2-----|
C|------------------|----------------2--|---------------------2--|
G|------------------|-------------------|------------------------|
H H H
A|-----0--0----0----0--0--|-----0--0----0----0--0--|-----0--0----0----0--0--|
E|--0--0--2----0----2-----|--0--0--2----0----2-----|--0--0--2----0----2-----|
C|---------------------2--|---------------------2--|---------------------2--|
G|------------------------|------------------------|------------------------|
H H H
A|-----0--0----0----0--0--|-----0--0----0----0--0--|-----0--0----0----0--0--|
E|--0--0--2----0----2-----|--0--0--2----0----2-----|--0--0--2----0----2-----|
C|---------------------2--|---------------------2--|---------------------2--|
G|------------------------|------------------------|------------------------|
H H H
A|-----0--0----0----0--0--||------0--0----0----0--0---||---------------------|
E|--0--0--2----0----2-----||---0--0--2----0----2------||------------------5--|
C|---------------------2--||*---------------------2--*||---------------------|
G|------------------------||*------------------------*||------------5--6-----|
H
A|------------------|---------------------|------------------|
E|------------------|------------------5--|------------------|
C|------------------|---------------------|------------------|
G|------------------|------------5--6-----|------------------|

 

Commentaires (0)
Aucun commentaire :(
Besoin d'aide, envie de partager une astuce, ou simplement de parler de cette chanson? Commencez la discussion!

Vous devez être connecté pour participer à la discussion
ou Inscription

 

A propos de cette chanson

Pas d'information sur cette chanson.