Kryptonite Tab par 3 Doors Down

3 Accords utilisés dans la chanson: Bm, G, A

Ajouter cette tab à votre SongBook
Tablature / ChordsFont size: A- A A+

Vous ne savez pas comment lire une tablature ou un accord ?
Ne manquez pas nos cours:

Comment lire une tablature pour ukulélé
Comment lire un accord

Intro picking pattern:

| | | |
|-------5---2-----------2-------4-------5---2-----------2-------4-
|---2-----------2---3-------0-------2-----------2---3-------0-----
|-2-----------2---2-------1-------2-----------2---2-------1-------
|-----4---------------0-------2-------4---------------0-------2---
| | | | | | | | | | | | | | | |
Bm Bm G G A A Bm Bm G G A A


Verses and chorus:

Bm Bm, G G, A A


Solo:
(the solo sounds better when all 4 strings are played as shown below)
(but if this is too hard for beginners, you only need play the top string)

| | | |
|-2--4--5---4-5-4-7--5--4---5-4-0-2--2--2---2-2-2-7--77-774--44-44
|-2--2--2---2-2-2-3--3--0---0-0-0-2--5--2---5-2-5-7--77-775--55-55
|-2--2--2---2-2-2-2--2--1---1-1-1-2--2--2---2-2-2-7--77-774--44-44
|-4--4--4---4-4-4-0--0--2---2-2-2-4--4--4---4-4-4-7--77-776--66-66
| | | | | | | | | | | | | | | |

| | | |
|-2--4--5---4-5-4-9--7--4---5-4-0-2--2--2---2-2-2-7--77-774--44-44
|-2--2--2---2-2-2-7--7--0---0-0-0-2--5--2---5-2-5-7--77-775--55-55
|-2--2--2---2-2-2-7--7--1---1-1-1-2--2--2---2-2-2-7--77-774--44-44
|-4--4--4---4-4-4-7--7--2---2-2-2-4--4--4---4-4-4-7--77-776--66-66
| | | | | | | | | | | | | | | |

 

Commentaires (1)
Vous devez être connecté pour participer à la discussion
ou Inscription

 

UkeOwl avatar
flag for NZ(ISO2) (Auckland)
I've just noticed there was a wrong note in the solo. This has now been fixed (01/01/2010)

happy new year!
UkeOwl
01 Jan 2010
A propos de cette chanson

Pas d'information sur cette chanson.