Mi Muñeca Tab por Panda

7 Acordes utilizados en la canción: C, G, Am, F, D, A, Bm

Añadir esta tab a su SongBook

Ver esos acordes para el baritono

Transpose chords:
Acordes:
Mantén los accordes en la pantalla mientras te desplazas
Tablature / ChordsFont size: A- A A+

¿ No sabe cómo leer una tablatura o un acorde ?

curso de ukulele

C C            G G        Am Am    F F           C C
Todo lo que necesites solo yo lo puedo dar
G G Am Am F F
todo lo que tu quieras yo lo tengo
C C G G Am Am F F C C
Necesitas un abrigo entre mis brazos estara
G G Am Am F F
necesitas un camino yo lo pinto
C C G G Am Am F F
Mi muñeca esta llorando
C C G G Am Am F F
mi muñeca esta
C C G G Am Am F F
Mi muñeca esta llorando
C C G G Am Am F F
mi muñeca esta
C C G G Am Am F F C C
Mi muñeca esta llorando pero yo no se porque
G G Am Am F F
sera que no me quiere, no me quiere
C C G G Am Am F F C C
necesitas un amigo, aqui yo mero estare
G G Am Am F F
pero te pido que me mates, matame

-OJO- CON EL CAMBIO

D D A A Bm Bm G G D D
Mi muñeca esta llorando
A A Bm Bm G G
mi muñeca esta
D D A A Bm Bm G G D D
Mi muñeca esta llorando
A A Bm Bm G G
mi muñeca esta

se detiene la musica y empieza el solo:
--------------------------|-------------------------|
---10---------------------|----10---------12-12-10-8|
-11---9-11-9--------12-11-|-11---9-11-9-------------|
-------------12-12--------|-------------12----------|
--------------------------|-------------------------|
--------------------------|-------------------------|

-------------------10-----9-10-----9-10-----9-10------12-12-10-10-10-10-|
---10----------12-12----------------------------------------------------|
-11--9-11-9----------12-11----12-11----12-11-----12-11------------------|
------------12----------------------------------------------------------|
------------------------------------------------------------------------|
------------------------------------------------------------------------|


D D A A Bm Bm G G D D
Mi muñeca esta llorando
A A Bm Bm G G
mi muñeca esta
D D A A Bm Bm G G D D
Mi muñeca esta llorando
A A Bm Bm G G
mi muñeca esta

D D G G A A G G D D
Sabes que fue? talvez porque?
G G A A D D
ella lloro (nadie la hizo llorar)
G G A A G G D D
Yo la quiero, mas no quiero
G G A A D D
verla feliz (nadie la hizo llorar)
A A D D
(nadie la hizo llorar)
A A D D
nadie la hizo llorar
A A D D
nadie la hizo llorar

 

Comentarios (0)
Ningún comentario :(
¿Necesitas ayuda, un consejo para compartir o simplemente quieres hablar sobre esta canción? Comience la discusión

Debes iniciar sesión para unirte a la discusión
o Registrarse

 

Acerca de esta canción

No hay información por esta canción.