Andei Só (Intro) Tab por Natiruts

tablatura Ukulele sin acordes.

Añadir esta tab a su SongBook
Tablature / ChordsFont size: A- A A+

¿ No sabe cómo leer una tablatura o un acorde ?

curso de ukulele

A|------2-4-4-7---2------2-4-4-7---2-----------------
E|--4-4---------4---4-4----------4-------------------
C|---------------------------------------------------
G|---------------------------------------------------

A|----4-2-------------------4-2----------------------
E|--4-----4-3-2-2-2-0-4---4-----4-3-2-2-2-0-4--------
D|---------------------------------------------------
G|---------------------------------------------------

A|----4-2-------------------4-2-----------0-2--------
E|--4-----4-3-2-2-2-0-4---4-----4-3-2-2-2------------
D|---------------------------------------------------
G|---------------------------------------------------

 

Comentarios (0)
Ningún comentario :(
¿Necesitas ayuda, un consejo para compartir o simplemente quieres hablar sobre esta canción? Comience la discusión

Debes iniciar sesión para unirte a la discusión
o Registrarse

 

Acerca de esta canción

No hay información por esta canción.