No Me Lo Hagas A Mí Tab por Lola Club

12 Acordes utilizados en la canción: E, B, Asus42, Bm, C#5, B5, E5, Badd4/D#, C#m, F#m, G#m, A

Añadir esta tab a su SongBook

Ver esos acordes para el baritono

Transpose chords:
Acordes:
Mantén los accordes en la pantalla mientras te desplazas
Tablature / ChordsFont size: A- A A+

¿ No sabe cómo leer una tablatura o un acorde ?

curso de ukulele

Instagram:  @diego_warrior02

(Las tabs son para guitarra)






Intro

E E B B Asus2 Asus2 E E
E|-----------------------------|-----------------------------|
B|------4--5-5-5-4-5---2-2-2-0-|-----4--5-5-5-4-5---2-2-2-0--|
G|--4p6------------------------|--4p6------------------------|
D|-----------------------------|-----------------------------|
A|-----------------------------|-----------------------------|
E|-----------------------------|-----------------------------| x2

E E
Las palabras sobran
Bm Bm Asus2 Asus2
cuando la imaginación estorba
E E
siempre es así

E E Bm Bm
los recuerdos que escribimos en papel
Asus2 Asus2
al viento se nos fueron
E E
y ya no han de volver.

C#5 C#5 B5 B5
Me enseñaste que en los cuentos de hadas
Asus2 Asus2
no siempre hay un final feliz,
E5 E5 Badd4/D# Badd4/D#
pero se tiene que seguir
C#m C#m B5 B5
y no pretendas destrozar más mi alma
Asus2 Asus2
solo dime lo que es
B5 B5 E5 E5 Badd4/D# Badd4/D#
yo sé que me va a doler...

E E B5 B5
Pero por favor, no niegues
Asus2 Asus2
que el fuego se extinguió,
B B
que se acabó ese amor
E E B5 B5
que me tienes o me solías fingir.
Asus2 Asus2
No tienes que mentir, lo puedo yo sentir
F#m F#m G#m G#m A A
Si yo no te lastimo así, no me lo hagas a mi!

Puente:
E E B B Asus2 Asus2 E E
E|-----------------------------|-----------------------------|
B|------4--5-5-5-4-5---2-2-2-0-|-----4--5-5-5-4-5---2-2-2-0--|
G|--4p6------------------------|--4p6------------------------|
D|-----------------------------|-----------------------------|
A|-----------------------------|-----------------------------|
E|-----------------------------|-----------------------------|

E E
No mides la intensidad
Bm Bm
con la que empiezas a amar
Asus2 Asus2 E E
y en un segundo con mi vida acabar.

C#5 C#5 B5 B5
Me enseñaste que en los cuentos de hadas
Asus2 Asus2
no siempre hay un final feliz,
E5 E5 Badd4/D# Badd4/D#
pero se tiene que seguir
C#m C#m B5 B5
y no pretendas destrozar más mi alma
Asus2 Asus2
solo dime lo que es
B5 B5 E5 E5 Badd4/D# Badd4/D#
yo sé que me va a doler...

E E B5 B5
Pero por favor, no niegues
Asus2 Asus2
que el fuego se extinguió,
B B
que se acabó ese amor
E E B5 B5
que me tienes o me solías fingir.
Asus2 Asus2
No tienes que mentir, lo puedo yo sentir
F#m F#m G#m G#m A A
Si yo no te lastimo así, no me lo hagas a mi!


C#m C#m G#m G#m
Acaba de una vez
A A
destroza ya mi ser
E E
no te detengas, yo no lo haré
Badd4/D# Badd4/D#
no, no, no lo haré

C#m C#m G#m G#m
sigue la oportunidad
A A
de sentirte respirar
B B E E
a mi lado una vez más...



Asus2 Asus2
Que el fuego se extinguió
B5 B5
que se acabó ese amor
E E B5 B5
que me tienes o me solías fingir
Asus2 Asus2
No tienes que mentir, lo puedo yo sentir

F#m F#m G#m G#m A A
Si yo no te lastimo así... Nooo!
F#m F#m G#m G#m A A
Si yo no te lastimo así, no me lo hagas a mi.

 

Comentarios (0)
Ningún comentario :(
¿Necesitas ayuda, un consejo para compartir o simplemente quieres hablar sobre esta canción? Comience la discusión

Debes iniciar sesión para unirte a la discusión
o Registrarse

 

Acerca de esta canción

No hay información por esta canción.