Mi Corazón Encantado Tab por Dragon Ball

tablatura Ukulele sin acordes.

Añadir esta tab a su SongBook
Tablature / ChordsFont size: A- A A+

¿ No sabe cómo leer una tablatura o un acorde ?

curso de ukulele

S                          S                       
A|----------------------------------------------------
E|--------------------------6-6-----4-6---------6-4-2-
C|----------------------------------------------------
G|-6-8--8--4-6-8--9--8--6-4-----4-4-----4-6-6-4-------

A|---------------------------
E|-4-------------------5---5-
C|---------------------------
G|---4-8--6-4-6-7--6-4---4---
H P
A|----------------------5----5----7---------7---5----3---7-------7---5
E|----------5--—3—--3---------------1--------------------1-----------|
C|-------------------------------------------------------------------|
G|-2—2--5------------------------------------------------------------|
H
A|--------------------5-----5-----7---------7---5----3---7---5---3--2--3|
E|----------5--—3—-3----------------1-----------------------------------|
C|----------------------------------------------------------------------|
G|-2—-2--5--------------------------------------------------------------|

A|--3--------------------------------------------------|
E|----------------------------6----4----6----------6---|
C|-----------------------------------------------------|
G|-------5---5---5---5---5-------------------5---------|

A|-----------------------------------------------|
E|--6---6---6---6----6--4---3---4----6------4----|
C|-----------------------------------------------|
G|-----------------------------------------------|
S
A|-----------------------------------------6-------------|
E|--4--4--4-----4-3----1--3----1-----1-----------1--3----|
C|-------------------------------------------------------|
G|-------------------------------------------------------|

A|----------------------------------------------------------|
E|--3--4--6-------------------------6--4--6-----6-----------|
C|----------------------------------------------------------|
G|-----------5--5---5---5---5---5------------5--------------|

A|--------------------------------|-------------------|
E|--6--6----------------6----4-3-4|-4--6---4--4--3----|
C|--------------------------------|-------------------|
G|--------5--7---7---8------------|-------------------|

A|------------------------------|--------------|---------------------------|
E|-3-----------------------|-4--6-----6---|-6--------6-4-4-3-4-3-3-4-3|
C|-------------------------|--------------|---------------------------|
G|----12--10--10--9--10--9--10--|------5-5---5-|----7---5------------------|

 

Comentarios (0)
Ningún comentario :(
¿Necesitas ayuda, un consejo para compartir o simplemente quieres hablar sobre esta canción? Comience la discusión

Debes iniciar sesión para unirte a la discusión
o Registrarse

 

Acerca de esta canción

No hay información por esta canción.