Amor Narcótico (Intro) Tab por Chichi Peralta

tablatura Ukulele sin acordes.

Añadir esta tab a su SongBook
Tablature / ChordsFont size: A- A A+

¿ No sabe cómo leer una tablatura o un acorde ?

curso de ukulele

A |-----6-------6------3---6-------3----------------|
E |-------3-4-3----------1---1-4-1------------------|
C |-------------------------------------------------|
G |---3-----------3--1---------------1--------------|

A |--5---------------5------6---6---5--------3---3-6-5-|
E |----3-1-3-6-3-1-3----------4-------3--------1-------|
C |----------------------------------------------------|
G |3-------------------3--5-------3-----3--1-----------|

 

Comentarios (0)
Ningún comentario :(
¿Necesitas ayuda, un consejo para compartir o simplemente quieres hablar sobre esta canción? Comience la discusión

Debes iniciar sesión para unirte a la discusión
o Registrarse

 

Acerca de esta canción

No hay información por esta canción.